Song name
# A B C D E F G H I J K L M N O P Q R S T U V W X Y Z

Taylor Swift - Love Story tab

it's my first tab, and i made this on a internet cafe so expect updates.



1st solo
e|--------------------------------|-------------------------------|
B|------9---7---------------7-----|-------7-----------------------|
G|--7-7---7---7-9-7-7-7-9-7---7-9-|-7-9-7---7-9---7-9-7-6-7-9-7---|
D|--------------------------------|-------------------------------|
A|--------------------------------|-------------------------------|
E|--------------------------------|-------------------------------|



e|-------------------------------------------------------------------------|
B|------9---7--------------------------------------------------------------|
G|--7-7---7---7-7-7-6-7-6-------------9-7-7-6-6------------------------7---|
D|------------------------9-7-------------------9-9-7-7------------7-9-----|
A|----------------------------10-9-10-------------------10-10-9-10---------|
E|-------------------------------------------------------------------------|

then Bm


2nd solo
e|----------------------------------------------------------------------|
B|------11---9---------------9---------------9--------------9-----------|
G|--9-9----9---9-11---9-11-9---9-11---9-11-9---9-11--9-11-9---9-11-9----|
D|----------------------------------------------------------------------|
A|----------------------------------------------------------------------|
E|----------------------------------------------------------------------|

e|-----------------------------------------0------2------0-----|
B|-----------------------------------------2------4------0-----|
G|--11-9-9-8-8-----------------------------2(8x)--4(8x)--1-----|
D|-------------11-11-9-9-------------------2------4------2-----|
A|-----------------------12-12-11-11-9-9---0------2------2-----|
E|-----------------------------------------0------2------0-----|

questions: just message me. :D
Tap to rate this tab
 
# A B C D E F G H I J K L M N O P Q R S T U V W X Y Z