Song name
# A B C D E F G H I J K L M N O P Q R S T U V W X Y Z

Taylor Swift - Love Story tab

Taylor Swift - Love Story


Tune: Standard

* h = hammer on
  p = pull off
  / = slide up
  x = Mute note
  ~ = vibrato

                    ****Capo 2nd Fret****


Intro:



     1)----------------------------------------------|
     2)--------------3----1----3----1---------1------|
     3)---------0------------------------0-----------|   X 2
     4)----2-----------------------------------------|
     5)----------------------------------------------|
     6)----------------------------------------------|


     1)----------------------------------------------|
     2)--------------3----1----3----1---------1------|
     3)---------0------------------------0-----------|   X 2
     4)----0-----------------------------------------|
     5)----------------------------------------------|
     6)----------------------------------------------|


     1)----------------------------------------------|
     2)--------------3----1----3----1---------1------|
     3)---------2------------------------2-----------|   X 2
     4)----2-----------------------------------------|
     5)----------------------------------------------|
     6)----------------------------------------------|


     1)----------------------------------------------|
     2)--------------3----1----3----1---------1------|
     3)---------0------------------------0-----------|   X 2
     4)----3-----------------------------------------|
     5)----------------------------------------------|
     6)----------------------------------------------|




Verse 1:


           We were both young when I first saw you
     1)-------------------------------------------------------------------|
     2)----0h1----1----1----1----1----1---0h1----1h3----1----1------------|
     3)---------------------0---------------------------------------------|
     4)-------------------------------------------------------------------|
     5)----3----------------3---------------------------------------------|
     6)-------------------------------------------------------------------|


           I close my eyes and the flashback starts
     1)-------------------------------------------------------------------|
     2)----0h1----1----1----1----1----1---0h1----1h3----1-----------------|
     3)---------------------0---------------------------------------------|
     4)----3----------------3---------------------------------------------|
     5)-------------------------------------------------------------------|
     6)-------------------------------------------------------------------|


           I'm standing there on a balcony of summer air
     1)-------------------------------------------------------------------|
     2)----0h1---------1----1----1----0----0------------------------------|
     3)-----------2----2------------------------2----0----0--0h2----0-----|
     4)-----------2----------------------------------0----0----0----0-----|
     5)-----------0----0--------------------------------------------------|
     6)----------------------------------------------3--------------------|


           See the lights, See the party the ball gowns
     1)-------------------------------------------------------------------|
     2)----0h1---------1----1----1----1----1p0----0----1----1h3----1------|
     3)---------------------0---------------------------------------------|
     4)-------------------------------------------------------------------|
     5)----3----------------3---------------------------------------------|
     6)-------------------------------------------------------------------|


           I see you make your way through the crowd
     1)-------------------------------------------------------------------|
     2)----0h1---------1----1----1----1----1p0----0----1----1h3----1------|
     3)---------------------0---------------------------------------------|
     4)----3----------------3---------------------------------------------|
     5)-------------------------------------------------------------------|
     6)-------------------------------------------------------------------|


           You say hello, Little did I know
     1)-------------------------------------------------------------------|
     2)----0h1---------1----0---------------------------------------------|
     3)-----------2----2---------2----0----0--0h2----0--------------------|
     4)-----------2-------------------0----0----0----0--------------------|
     5)-----------0----0--------------------------------------------------|
     6)-------------------------------3-----------------------------------|


           That you were romeo, you were throwing pebbles
     1)-------------------------------------------------------------------|
     2)----0----1----1----1----1----1----1----1----0----0h1----1h3----1---|
     3)---------2-------------------2-------------------0-----------------|
     4)---------3-------------------3-------------------------------------|
     5)-------------------------------------------------------------------|
     6)-------------------------------------------------3-----------------|


           And my daddy said stay away from Juliet
     1)--------------------------------------------3----1----0----0-------|
     2)----0----1----1----3----1----1----1----1---------------------------|
     3)---------2--------------2------------------------------------------|
     4)---------2---------------------------------------------------------|
     5)---------0--------------0-------------------3---------3------------|
     6)-------------------------------------------------------------------|


           And I was crying on the staircase, Begging you please
     1)----0----0----0----0----0----0-------------------------------------|
     2)--------------1-------------------1----3----3----3-----------------|
     3)--------------2------------------------0---------------------------|
     4)---------------------------------------0---------------------------|
     5)--------------0----------------------------------------------------|
     6)---------------------------------------3---------------------------|


            don't go,              and I said
     1)---------1----0-------------0----0---------------------------------|
     2)----1---------------------------------1----------------------------|
     3)-------------------------------------------------------------------|
     4)-------------------------------------------------------------------|
     5)---------0------------------3--------------------------------------|
     6)-------------------------------------------------------------------|



Chorus:


        C
      Romeo take me somewhere we can be alone
       G
      I'll be waiting all there's left to do is run
       Am
      You'll be the prince and I'll be the princess
       F                G
      Its a love story baby just say yes



     1)----------------------------------------------|
     2)--------------3----1----3----1---------1------|
     3)---------0------------------------0-----------|   X 2
     4)----2-----------------------------------------|
     5)----------------------------------------------|
     6)----------------------------------------------|



Verse 2:



           So I sneak out to the garden to see you
     1)-------------------------------------------------------------------|
     2)----0h1---------1----1----1----1----0----0h1----1h3----1----1------|
     3)---------------------0---------------------------------------------|
     4)-------------------------------------------------------------------|
     5)----3----------------3---------------------------------------------|
     6)-------------------------------------------------------------------|


           We keep quite 'cause we're dead if they know
     1)-------------------------------------------------------------------|
     2)----0h1---------1----1----1----1----0----0h1----1h3----1-----------|
     3)---------------------0---------------------------------------------|
     4)----3----------------3---------------------------------------------|
     5)-------------------------------------------------------------------|
     6)-------------------------------------------------------------------|


           So close your eyes, Escape this town for a little while
     1)-------------------------------------------------------------------|
     2)----0h1---------1----1----1----0----0------------------------------|
     3)-----------2----2------------------------2----0----0--0h2----0-----|
     4)-----------2----------------------------------0----0----0----0-----|
     5)-----------0----0--------------------------------------------------|
     6)----------------------------------------------3--------------------|


           'Cause you were Romeo, I was a scarlet letter
     1)-------------------------------------------------------------------|
     2)----0----1----1----1----1----1----1----1----0----0h1----1h3----1---|
     3)---------2-------------------2-------------------0-----------------|
     4)---------3-------------------3-------------------------------------|
     5)-------------------------------------------------------------------|
     6)-------------------------------------------------3-----------------|


           and my daddy said stay away from Juliet
     1)--------------------------------------------3----1----0----0-------|
     2)----0----1----1----3----1----1----1----1---------------------------|
     3)---------2---------------------------------------------------------|
     4)---------2---------------------------------------------------------|
     5)---------0--------------0-------------------3---------3------------|
     6)-------------------------------------------------------------------|


           But you were everything to me, I was begging you please
     1)----0----0----0----0----0----0-------------------------------------|
     2)--------------1-------------------1----3----3----3-----------------|
     3)--------------2------------------------0---------------------------|
     4)---------------------------------------0---------------------------|
     5)--------------0----------------------------------------------------|
     6)---------------------------------------3---------------------------|


           don't go,              and I said
     1)---------1----0-------------0----0---------------------------------|
     2)----1---------------------------------1----------------------------|
     3)-------------------------------------------------------------------|
     4)-------------------------------------------------------------------|
     5)---------0------------------3--------------------------------------|
     6)-------------------------------------------------------------------|



Chorus:



       C
      Romeo take me somewhere we can be alone
       G
      I'll be waiting all there's left to do is run
       Am
      You be the prince I'll be the princess
       F                G
      Its a love story baby just say yes

       C
      Romeo, save me, they're trying to tell me how to feel
        G
      This love is difficult, but its real,
        Am
      Don't be afraid, we'll make it out of this mess
       F                G
      Its a love story baby just say yes



Solo 1:


     1)-----------1------0-0-----------------------------0----------------|
     2)----1-1------1-----------3----1----1----3----1---------1----3------|
     3)-------------------------------------------------------------------|
     4)-------------------------------------------------------------------|
     5)----3-------------3-----------3-------------------3----------------|
     6)-------------------------------------------------------------------|



     1)------------------0-0----------------------------------------------|
     2)----1-1----3-1-----------3----1-3-1----0-0----3-1------------------|
     3)-------------------------------------------------------------------|
     4)-------------------------------------------------------------------|
     5)-------------------------------------------------------------------|
     6)----3-------------3-------------3------3---------------------------|



     1)----1-1----0-0-----------------------------------------------------|
     2)------------------3-3----1-1----0h1-0------------------------------|
     3)-----------------------------------------2p0-----------------------|
     4)------------------------------------------------3----2----0--------|
     5)----0-------------0-------------0----------------------------------|
     6)-------------------------------------------------------------------|



     1)-------------------------------------------------------------------|
     2)----3----1-1----0-0------------------------------------------------|
     3)-----------------------2----0----------------0h2-------------------|
     4)---------------------------------3----2h3--------------------------|
     5)-------------------------------------------------------------------|
     6)----1-----------1---------------------1----------------------------|



Verse 3:


           I got tired of waiting,         wondering if you were ever
     1)----0-----------------------------------------------0---0---0---0--|
     2)---------3----1----0----0h1----1---------1-1----3------------------|
     3)-------------------------------2----2---------------0--------------|
     4)-------------------------------3-----------------------------------|
     5)------------------------0---------------------------3--------------|
     6)-------------------------------------------------------------------|



           coming around
     1)----0h1p0------------------|
     2)-------------3-------------|
     3)-------------0-------------|
     4)---------------------------|
     5)----3----------------------|
     6)-------------3-------------|


           My faith in you was fading     When I met you on the outskirts
     1)---------0----------------------------------0---0---0---3---0------|
     2)----1---------1----0-0/1----1----1-1----3--------------------------|
     3)-------------------------------------------------------------------|
     4)-------------------------------------------------------------------|
     5)---------------------0-----(0)--------------3----------------------|
     6)--------------------------------------------------------3----------|


           of town, and i said
     1)---------------------------|
     2)----3-3------1----3----1---|
     3)---------------------------|
     4)---------------------------|
     5)---------------------------|
     6)------3--------------------|



Chorus:



           Romeo save me i've been feeling so alone
     1)----------------------------------------------------------|
     2)----------------------------------------------------------|
     3)----------------------------------------------------------|
     4)----2--2--2--2--2--2--2--2--2--2--2--2--2--2--2--2--------|
     5)----3--3--3--3--3--3--3--3--3--3--3--3--3--3--3--3--------|
     6)----------------------------------------------------------|
                           ^========^
                             silent


           I keep waiting for you but you never come
     1)----------------------------------------------------------|
     2)----------------------------------------------------------|
     3)----------------------------------------------------------|
     4)----------------------------------------------------------|
     5)----5--5--5--5--5--5--5--5--5--5--5--5--5--5--5--5--------|
     6)----3--3--3--3--3--3--3--3--3--3--3--3--3--3--3--3--------|
                           ^========^
                             silent


           Is this in my head, I don't know what to think
     1)----------------------------------------------------------|
     2)----------------------------------------------------------|
     3)----------------------------------------------------------|
     4)----2--2--2--2--2--2--2--2--2--2--2--2--2--2--2--2--------|
     5)----0--0--0--0--0--0--0--0--0--0--0--0--0--0--0--0--------|
     6)----------------------------------------------------------|
                           ==========>
                             louder



           He knelt to the ground and pulled out a ring and said
     1)----------------------------------------------------------|
     2)----------------------------------------------------------|
     3)----------------------------------------------------------|
     4)----------------------------------------------------------|
     5)----3--3--3--3--3--3--3--3---5--5--5--5--5--x---pause-----|
     6)----1--1--1--1--1--1--1--1---3--3--3--3--3--x-------------|
                           ==========>
                             louder




        D
      Marry me Juliet you'll never have to be alone
         A
      I love you and that's all I really know
         Bm
      I talked to your dad go pick out a white dress
       G                 A
      It's a love story baby just say...




Solo 2:


         ...yes
     1)-------------0-------2-------0---------0-------2-------0---|
     2)----3---3--------3-------3---------3-------3-------3-------|
     3)-----------------------------------------------------------|
     4)----0----------------0-------------------------0-----------|
     5)-----------------------------------------------------------|
     6)-----------------------------------------------------------|



     1)-------------0-------2-------0---------0-------2-------0---|
     2)----3---3--------3-------3---------3-------3-------3-------|
     3)-----------------------------------------------------------|
     4)-----------------------------------------------------------|
     5)----0----------------0-------------------------0-----------|
     6)-----------------------------------------------------------|



     1)-----------------------------------------------------------|
     2)----3-3--2-2--0-0------------------------------------------|
     3)-------------------2-2--0-0--------------------------------|
     4)----0---------0---------0----4-4--2-2--0-0-----------------|
     5)-----------------------------------------------------------|
     6)-----------------------------------------------------------|



           We were both young when I first saw you
     1)------------------------------------0----------------------|
     2)----2h3---3---3---3-----3---2---3---2----3~----------------|
     3)------------------------------------2----------------------|
     4)-----------------------------------------0-----------------|
     5)----------------------------0-------0----------------------|
     6)-----3------------3----------------------------------------|




           After you lern the song please take a secound and rate...

        ***************************************************************
              The credits for the tabs goes to me(HAREL.R),

              the credits for the chords goes to rakiztah20.
Tap to rate this tab
# A B C D E F G H I J K L M N O P Q R S T U V W X Y Z