Song name
# A B C D E F G H I J K L M N O P Q R S T U V W X Y Z

Taylor Swift - White Horse tab

This tab is 100% right! You must finger pluck!
It is easy once you get used to it! Enjoy!

Capo: 5th

G:320033
Cadd9:032033
Em7:022033
D:000233

  G              Cadd9          Em7            Cadd9
|------------------------------------------------------------|
|-------3--------------3--------------3--------------3-------|
|-0--0----0------0--0----0------0--0----0------0--0----0-----|
|-----------0--------------2--------------2--------------2---|
|----------------3--3-----------2--2-----------3--3----------|
|-3--3-------------------------------------------------------|


  G              Cadd9          Em7            Cadd9
|------------------------------------------------------------|
|-------3--------------3--------------3--------------3-------|
|-0--0----0------0--0----0------0--0----0------0--0----0-----|
|-----------0--------------2--------------2--------------2---|
|----------------3--3-----------2--2-----------3--3----------|
|-3--3-------------------------------------------------------|


  G              Cadd9          Em7            Cadd9
|------------------------------------------------------------|
|-------3--------------3--------------3--------------3-------|
|-0--0----0------0--0----0------0--0----0------0--0----0-----|
|-----------0--------------2--------------2--------------2---|
|----------------3--3-----------2--2-----------3--3----------|
|-3--3-------------------------------------------------------|
 say you're sorry That face of an angel Comes out just when you need it to


  G              Cadd9          Em7            Cadd9
|------------------------------------------------------------|
|-------3--------------3--------------3--------------3-------|
|-0--0----0------0--0----0------0--0----0------0--0----0-----|
|-----------0--------------2--------------2--------------2---|
|----------------3--3-----------2--2-----------3--3----------|
|-3--3-------------------------------------------------------|
 As I pace back and forth all this time cause I honestly belived in you


  Em7            Cadd9          
|------------------------------|
|-------3--------------3-------|
|-0--0----0------0--0----0-----|
|-----------2--------------2---|
|-2--2-----------3--3----------|
|------------------------------|
 Holding on, the days drag on


  D          
|---------------|
|----3--3--3----|
|-2---2--2------|
|------0--0-----|
|-0-------------|
|---------------|
 Stupid Girl, I should have know, I should have known

(pause)
That I'm not a

(strumming) 
G
princess, this ain't a

Em7
fairytale, I'm not the

Cadd9
one you'll sweep off her feet

D
Lead her up the stair well, this ain't
 
G
Hollywood, this is a

Em7
small town, I was a 

Cadd9
Dreamer before you and you

D
Let me down

G
Now it's too late for you and your 

Cadd9
White horse

(pause)
To come around

(plucking)
  G              G          
|------------------------------|
|-------3--------------3-------|
|-0--0----0------0--0----0-----|
|-----------0--------------0---|
|----------------3--3----------|
|-3--3-------------------------|


  G              Cadd9          Em7            Cadd9
|------------------------------------------------------------|
|-------3--------------3--------------3--------------3-------|
|-0--0----0------0--0----0------0--0----0------0--0----0-----|
|-----------0--------------2--------------2--------------2---|
|----------------3--3-----------2--2-----------3--3----------|
|-3--3-------------------------------------------------------|
 Maybe I was naive got lost in your eyes I never really had a chance


  G              Cadd9          Em7            Cadd9
|------------------------------------------------------------|
|-------3--------------3--------------3--------------3-------|
|-0--0----0------0--0----0------0--0----0------0--0----0-----|
|-----------0--------------2--------------2--------------2---|
|----------------3--3-----------2--2-----------3--3----------|
|-3--3-------------------------------------------------------|
 My mistake I didn't know to be in love you had to fight to have the upper hand


  Em7            Cadd9        
|-----------------------------|
|-------3--------------3------|
|-0--0----0------0--0----0----|
|-----------2--------------2--|
|-2--2-----------3--3---------|
|-----------------------------|
 I had so many dreams about you and me happy endings 


  D          
|---------------|
|----3--3--3----|
|-2---2--2------|
|------0--0-----|
|-0-------------|
|---------------|
 endings now I know


(pause)
That I'm not a

(strumming) 
G
princess, this ain't a

Em7
fairytale, I'm not the

Cadd9
one you'll sweep off her feet

D
Lead her up the stair well, this a
 
G
hollywood, this is a

Em7
small town, I was a 

Cadd9
Dreamer before you and you

D
Let me down

G
Now it's too late for you and your 

Cadd9
White horse

(pause)
To come around

(plucking)
  G              G          
|------------------------------|
|-------3--------------3-------|
|-0--0----0------0--0----0-----|
|-----------0--------------0---|
|------------------------------|
|-3--3-----------3--3----------|

(strumming)
G
and there you are on your 

Cadd9
knees

Em7
begging for forgiveness

D
Begging for me

Em7
Just like I always wanted

Cadd9
But I'm so

F
Sorry

(pause)
cause I'm not your 

(plucking)
  G
|---------------|
|---------------|
|-----0-----0---|
|---------------|
|---2-----2-----|
|-3-----3-------|
 princess, this ain't a

  Em7
|---------------|
|---------------|
|-----0-----0---|
|---------------|
|---2-----2-----|
|-0-----0-------|
 Fairytale, I'm gonna 

  Cadd9
|---------------|
|---------------|
|-----0-----0---|
|---2-----2-----|
|-3-----3-------|
|---------------|
 find someone someday, who might

(strumming)
D
actually treat me well

G
this is a big world, that was a 

Em7
small town, there in my

Cadd9
rearveiw mirror disappearing

D
now, and it's

Em7
too late for you and your

Cadd9
white horse, now it's 

Em7
too late for you and your 

Cadd9
white horse

(pause)
to catch me now

G-Cadd9

Em7
woah-oh-oh-oh-oh-oh-oh

D
Try and catch me now

G
oh

Em7

Cadd9
It's too late

D
To catch me

G   
now          
Tap to rate this tab
# A B C D E F G H I J K L M N O P Q R S T U V W X Y Z