Taylor Swift - Forever And Always tab

----------------------------------------------------------------------------
		     FOREVER AND ALWAYS - Taylor Swift
----------------------------------------------------------------------------

Tuning: Capo 3

Chords Used:
   Cadd9  G      D      Em7    Em     C
E|-x------3------x------0------0------x-|
A|-3------2------x------2------2------3-|
D|-2------0------0------2------2------2-|
G|-0------0------2------0------0------0-|
B|-3------3------3------3------0------1-|
e|-3------3------2------3------0------0-|


Verse:

   Cadd9            G        D
E|-x----------------3--------x--------|
A|-3----------------2--------x--------|
D|-2----------------0--------0--------|
G|-0----------------0--------2--------|
B|-3----------------3--------3--------|
e|-3----------------3--------2--------|

Once upon a time, I believe it was a Tuesday,

   Cadd9            G        D
E|-x----------------3--------x--------|
A|-3----------------2--------x--------|
D|-2----------------0--------0--------|
G|-0----------------0--------2--------|
B|-3----------------3--------3--------|
e|-3----------------3--------2--------|

when I caught your eye, we caught onto something,

   Cadd9            G        D
E|-x----------------3--------x--------|
A|-3----------------2--------x--------|
D|-2----------------0--------0--------|
G|-0----------------0--------2--------|
B|-3----------------3--------3--------|
e|-3----------------3--------2--------|

I hold onto the night, you looked me in the eye,

   Cadd9            D
E|-x----------------x--------|
A|-3----------------x--------|
D|-2----------------0--------|
G|-0----------------2--------|
B|-3----------------3--------|
e|-3----------------2--------|

And told me you loved me, were you just kidding?

   Cadd9            G        D
E|-x----------------3--------x--------|
A|-3----------------2--------x--------|
D|-2----------------0--------0--------|
G|-0----------------0--------2--------|
B|-3----------------3--------3--------|
e|-3----------------3--------2--------|

'cuz it seems to me this thing is breaking down,

   Cadd9            G        D
E|-x----------------3--------x--------|
A|-3----------------2--------x--------|
D|-2----------------0--------0--------|
G|-0----------------0--------2--------|
B|-3----------------3--------3--------|
e|-3----------------3--------2--------|

We almost never speak, I don't feel welcome anymore,


   Cadd9            G                D
E|-x----------------3----------------x----------------|
A|-3----------------2----------------x----------------|
D|-2----------------0----------------0----------------|
G|-0----------------0----------------2----------------|
B|-3----------------3----------------3----------------|
e|-3----------------3----------------2----------------|

Baby what happened, Please tell me cause one second it was perfect,
Now you're halfway out the door.

Chorus:

   Cadd9            G                D                Em7
E|-x----------------3----------------x----------------0----------------|
A|-3----------------2----------------x----------------2----------------|
D|-2----------------0----------------0----------------2----------------|
G|-0----------------0----------------2----------------0----------------|
B|-3----------------3----------------3----------------3----------------|
e|-3----------------3----------------2----------------3----------------|

And I stare at the phone, he still hasn't called, and then you feel so
low you can't feel, nothing at all,

   Cadd9            G                D
E|-x----------------3----------------x--------------------------------|
A|-3----------------2----------------x--------------------------------|
D|-2----------------0----------------0--------------------------------|
G|-0----------------0----------------2--------------------------------|
B|-3----------------3----------------3--------------------------------|
e|-3----------------3----------------2--------------------------------|

And you flashback to when he said forever and always.

   Cadd9            G                D                Em7
E|-x----------------3----------------x----------------0----------------|
A|-3----------------2----------------x----------------2----------------|
D|-2----------------0----------------0----------------2----------------|
G|-0----------------0----------------2----------------0----------------|
B|-3----------------3----------------3----------------3----------------|
e|-3----------------3----------------2----------------3----------------|

Oh, and it rains in your bedroom, everything is wrong, it rains when you're here and it 
when you're gone.

   Cadd9            G                 D
E|-x----------------3----------------x--------------------------------|
A|-3----------------2----------------x--------------------------------|
D|-2----------------0----------------0--------------------------------|
G|-0----------------0----------------2--------------------------------|
B|-3----------------3----------------3--------------------------------|
e|-3----------------3----------------2--------------------------------|

'Cuz I was there when you said forever and always.

Verse:

   Cadd9            G        D
E|-x----------------3--------x--------|
A|-3----------------2--------x--------|
D|-2----------------0--------0--------|
G|-0----------------0--------2--------|
B|-3----------------3--------3--------|
e|-3----------------3--------2--------|

Was I out of line? Did I say something way to honest?

   Cadd9            G        D
E|-x----------------3--------x--------|
A|-3----------------2--------x--------|
D|-2----------------0--------0--------|
G|-0----------------0--------2--------|
B|-3----------------3--------3--------|
e|-3----------------3--------2--------|

made you run and hide, like a scared little boy,


   Cadd9            G        D
E|-x----------------3--------x--------|
A|-3----------------2--------x--------|
D|-2----------------0--------0--------|
G|-0----------------0--------2--------|
B|-3----------------3--------3--------|
e|-3----------------3--------2--------|

I looked into your eyes, thought I knew you for a minute,


  Cadd9             D
E|-x----------------x----------------|
A|-3----------------x----------------|
D|-2----------------0----------------|
G|-0----------------2----------------|
B|-3----------------3----------------|
e|-3----------------2----------------|

now I'm not so sure.

   Cadd9            G        D   (G and D are muted on the record!)
E|-x----------------3--------x--------|
A|-3----------------2--------x--------|
D|-2----------------0--------0--------|
G|-0----------------0--------2--------|
B|-3----------------3--------3--------|
e|-3----------------3--------2--------|

So here's to everything coming down to nothing


   Cadd9            G        D
E|-x----------------3--------x--------|
A|-3----------------2--------x--------|
D|-2----------------0--------0--------|
G|-0----------------0--------2--------|
B|-3----------------3--------3--------|
e|-3----------------3--------2--------|

Here's to silence that cuts me to the core


   Cadd9            G        D
E|-x----------------3--------x--------|
A|-3----------------2--------x--------|
D|-2----------------0--------0--------|
G|-0----------------0--------2--------|
B|-3----------------3--------3--------|
e|-3----------------3--------2--------|

Where is this going? Thought I knew for a minute,

  Cadd9             D
E|-x----------------x----------------|
A|-3----------------x----------------|
D|-2----------------0----------------|
G|-0----------------2----------------|
B|-3----------------3----------------|
e|-3----------------2----------------|

but I don't anymore

Chorus:

  Cadd9             G                D                Em7
E|-x----------------3----------------x----------------0----------------|
A|-3----------------2----------------x----------------2----------------|
D|-2----------------0----------------0----------------2----------------|
G|-0----------------0----------------2----------------0----------------|
B|-3----------------3----------------3----------------3----------------|
e|-3----------------3----------------2----------------3----------------|

And I stare at the phone, he still hasn't called, and then you feel so
low you can't feel, nothing at all,

  Cadd9             G                D
E|-x----------------3----------------x--------------------------------|
A|-3----------------2----------------x--------------------------------|
D|-2----------------0----------------0--------------------------------|
G|-0----------------0----------------2--------------------------------|
B|-3----------------3----------------3--------------------------------|
e|-3----------------3----------------2--------------------------------|

And you flashback to when he said forever and always.

 Cadd9              G                D                Em7
E|-x----------------3----------------x----------------0----------------|
A|-3----------------2----------------x----------------2----------------|
D|-2----------------0----------------0----------------2----------------|
G|-0----------------0----------------2----------------0----------------|
B|-3----------------3----------------3----------------3----------------|
e|-3----------------3----------------2----------------3----------------|

Oh, and it rains in your bedroom, everything is wrong, it rains when you're here and it 
when you're gone.

  Cadd9             G                D
E|-x----------------3----------------x--------------------------------|
A|-3----------------2----------------x--------------------------------|
D|-2----------------0----------------0--------------------------------|
G|-0----------------0----------------2--------------------------------|
B|-3----------------3----------------3--------------------------------|
e|-3----------------3----------------2--------------------------------|

'Cuz I was there when you said forever and always.

Bridge:

   Em       D        C
E|-0--------x--------x---------------|
A|-2--------x--------3---------------|
D|-2--------0--------2---------------|
G|-0--------2--------0---------------|
B|-3--------3--------1---------------|
e|-3--------2--------0---------------|

You didn't mean it Baby.

  Em       D        C
E|-0--------x--------x---------------|
A|-2--------x--------3---------------|
D|-2--------0--------2---------------|
G|-0--------2--------0---------------|
B|-3--------3--------1---------------|
e|-3--------2--------0---------------|

I don't think so.

Instrumental:

 Cadd9              G                D                Em7
E|-x----------------3----------------x----------------0----------------|
A|-3----------------2----------------x----------------2----------------|
D|-2----------------0----------------0----------------2----------------|
G|-0----------------0----------------2----------------0----------------|
B|-3----------------3----------------3----------------3----------------|
e|-3----------------3----------------2----------------3----------------|

Ohhhh, ohh ohhh.

   Cadd9            G                D
E|-x----------------3----------------x--------------------------------|
A|-3----------------2----------------x--------------------------------|
D|-2----------------0----------------0--------------------------------|
G|-0----------------0----------------2--------------------------------|
B|-3----------------3----------------3--------------------------------|
e|-3----------------3----------------2--------------------------------|

Bridge:

   Em7              Cadd9            D
E|-0----------------x----------------x--------------------------------|
A|-2----------------3----------------x--------------------------------|
D|-2----------------2----------------0--------------------------------|
G|-0----------------0----------------2--------------------------------|
B|-3----------------3----------------3--------------------------------|
e|-3----------------3----------------2--------------------------------|

Oh back up, baby back up, did you forget everything?


   Em7              Cadd9            D
E|-0----------------x----------------x--------------------------------|
A|-2----------------3----------------x--------------------------------|
D|-2----------------2----------------0--------------------------------|
G|-0----------------0----------------2--------------------------------|
B|-3----------------3----------------3--------------------------------|
e|-3----------------3----------------2--------------------------------|

Oh back up, baby back up, did you forget everything?

  Cadd9             D
E|-x----------------x----------------|
A|-3----------------x----------------|
D|-2----------------0----------------|
G|-0----------------2----------------|
B|-3----------------3----------------|
e|-3----------------2----------------|

Chorus:

   Cadd9            G                D                Em7
E|-x----------------3----------------x----------------0----------------|
A|-3----------------2----------------x----------------2----------------|
D|-2----------------0----------------0----------------2----------------|
G|-0----------------0----------------2----------------0----------------|
B|-3----------------3----------------3----------------3----------------|
e|-3----------------3----------------2----------------3----------------|

'Cuz it rains in your bedroom, everything is wrong, it rains when you're here and it 
when you're gone.

   Cadd9            G                 D
E|-x----------------3----------------x--------------------------------|
A|-3----------------2----------------x--------------------------------|
D|-2----------------0----------------0--------------------------------|
G|-0----------------0----------------2--------------------------------|
B|-3----------------3----------------3--------------------------------|
e|-3----------------3----------------2--------------------------------|

'Cuz I was there when you said forever and always.


  Cadd9             G                D                Em7
E|-x----------------3----------------x----------------0----------------|
A|-3----------------2----------------x----------------2----------------|
D|-2----------------0----------------0----------------2----------------|
G|-0----------------0----------------2----------------0----------------|
B|-3----------------3----------------3----------------3----------------|
e|-3----------------3----------------2----------------3----------------|

Oh, I stare at the phone, he still hasn't called, and then you feel so
low you can't feel, nothing at all,

  Cadd9             G                D
E|-x----------------3----------------x--------------------------------|
A|-3----------------2----------------x--------------------------------|
D|-2----------------0----------------0--------------------------------|
G|-0----------------0----------------2--------------------------------|
B|-3----------------3----------------3--------------------------------|
e|-3----------------3----------------2--------------------------------|

And you flashback to when he said forever and always.

 Cadd9              G                D                Em7
E|-x----------------3----------------x----------------0----------------|
A|-3----------------2----------------x----------------2----------------|
D|-2----------------0----------------0----------------2----------------|
G|-0----------------0----------------2----------------0----------------|
B|-3----------------3----------------3----------------3----------------|
e|-3----------------3----------------2----------------3----------------|

Oh, and it rains in your bedroom, everything is wrong, it rains when you're here and it 
when you're gone.

  Cadd9             G                D
E|-x----------------3----------------x--------------------------------|
A|-3----------------2----------------x--------------------------------|
D|-2----------------0----------------0--------------------------------|
G|-0----------------0----------------2--------------------------------|
B|-3----------------3----------------3--------------------------------|
e|-3----------------3----------------2--------------------------------|

'Cuz I was there when you said forever and always.


Outro:

   Em       D        C
E|-0--------x--------x---------------|
A|-2--------x--------3---------------|
D|-2--------0--------2---------------|
G|-0--------2--------0---------------|
B|-3--------3--------1---------------|
e|-3--------2--------0---------------|

You didn't mean it Baby.

   Em       D        C
E|-0--------x--------x---------------|
A|-2--------x--------3---------------|
D|-2--------0--------2---------------|
G|-0--------2--------0---------------|
B|-3--------3--------1---------------|
e|-3--------2--------0---------------|

You said Forever and always, yeah.
Tap to rate this tab
 
# A B C D E F G H I J K L M N O P Q R S T U V W X Y Z