Taylor Swift - Come In With The Rain chords

Highlighted       Show chord diagrams
v =down strum
^ =up strum
> =transpose

Intro: G D Em C
The Struming should be like these
           G
   v v v v ^ ^ v ^ ^ v ^
e|-3---3-3-3-3-3-2-2-2-0-|
B|-3---3-3-3-3-3-3-3-3-3-|
G|-0---0-0-0-0-0-0-0-0-0-|
D|-0-0-0-0-0-0-0-0-0-0-0-|
A|-x-x-x-x-----------x---|
E|-3-3-3-3-----------3---|
           D
   v v v v ^ ^ v ^ ^ v ^
e|-2---2-2-3-3-3-2-2-2-0-|
B|-3---3-3-3-3-3-3-3-3-3-|
G|-2-2-2-2-2-2-2-2-2-2---|
D|-0-0-0-0-0-0-0-0-0-0-0-|
A|-x-x-x-x-----------x---|
E|-x-x-x-x-----------x---|
           Em
   v v v v ^ ^ v ^ ^ v ^
e|-3---3-3-3-3-3-2-2-2-0-|
B|-3---3-3-3-3-3-3-3-3-3-|
G|-0---0-0-0-0-0-0-0-0-0-|
D|-x-x-x-x-x-x-x-x-x-x-x-|
A|-2-2-2-2-----------2---|
E|-0-0-0-0-----------0---|
           C
   v v ^ v ^ v  v ^ v ^
e|-3-3-3-3-3-3--3-3-3-3-----------|
B|-3-3-3-3-3-3--3-3-3-3-----------|
G|-0-0-0-0-0-0--0-0-0-0-----------|
D|-2-2-2-2-2-2--2-2-2-2---------0-|
A|-3-3-3-3-3-3--3-3-3-3---0>2-----|
E|-x-x-x-x-x-x--x-x-x-x-----------|




[Verses]
The chords and struming
      G
   v v ^ v ^ v  v ^ v ^ v  v ^
e|-3----------------------------|
B|-3----------------------------|
G|-0----------------------------|
D|-0----------------------------|
A|-2----------------------------|
E|-3----------------------------|
      D
   v v ^ v ^ v  v ^ v ^ v  v ^
e|-3----------------------------|
B|-3----------------------------|
G|-2----------------------------|
D|-0----------------------------|
A|-X----------------------------|
E|-X----------------------------|
      Em
   v v ^ v ^ v  v ^ v ^ v  v ^
e|-3----------------------------|
B|-3----------------------------|
G|-0----------------------------|
D|-2----------------------------|
A|-2----------------------------|
E|-0----------------------------|
      C
   v v ^ v ^ v  v ^ v ^ v  v ^
e|-3----------------------------|
B|-3----------------------------|
G|-0----------------------------|
D|-2----------------------------|
A|-3----------------------------|
E|------------------------------|
[Verse 1]
   G        D          Em
I could go back to every laugh,
     C      
But I donít wannaí go there anymore,
   G        D          Em
And I know all the steps up to your door,
     C
But I donít wannaí go there anymore.


[Bridge 1]
 Em                   G
Talk to the wind, talk to the sky,
  C                    D
Talk to the man with the reasons why,
      C                      D             G
And let me know what you find.


[Chorus 1]
 C      D     G      Em    
Iíll leave my window open,
C              D          G           Em   
ĎCause Iím too tired at night to call your name.
C      D     G      Em   
Just know Iím right here hopiní,
  C           D        Em           C
That youíll come in with the rain.


[verse 2]
 G             D           Em
I could stand up and sing you a song,
      C
But I donít wannaí have to go that far.
 G             D           Em
And I, Iíve got you down,I know you by heart,
  C
And you donít even know where I start.


[bridge 2]
 Em                   G
Talk to yourself, talk to the tears,
     C                      D  
Talk to the man who put you here,
      C                      D             G
And donít wait for the sky to clear.


[chorus 2]
  C      D     G      Em   
Iíll leave my window open,
 C           D             G            Em   
ĎCus Iím too tired at night to call your name.
        C       D      G       Em    
Oh, just know Iím right here hopiní,
  C           D        Em           C    G.. D.. Em.. C..
That youíll come in with the rain.


 Em            G
Iíve watched you so long,
     D
Screamed your name,
    C          D             C          D[1strum down]
I donít know what else I can say.


[[in this part, MUTE STRINGS after the D so do this..>at the front 
of the FRET BAR with the string..  put your finger there and don't press]]
Do this in mute ..and note: I said at the front of the FRET BAR
not the side or else
[[here's the tab below]]
e|---------|
B|---------|
G|----7-5--|
D|--7------|
A|---------|
E|---------|




[and pluking when singing]
     C         D       G       Em
e|-----3--|----3---|---3---|----3---|
B|-----3--|----3---|---3---|----3---|
G|--------|---2----|-------|--------|
D|---2--2-|--0---0-|-------|--------|
A|--3-----|--------|--2--2-|---2----|
E|--------|--------|-3-----|--0-----|
 C         D       G       Em
But Iíll leave my window open,
 C           D        G[strum now]       Em
ĎCus Iím too tired at night for all these games.
 C         D       G       Em
Just know Iím right here hopiní,
 C             D       G-D-Em      C..
That youíll come in with the rain.


[[do the struming in verse 1 here]]
 G                     D
I could go back to every laugh,
     C
But I donít wannaí go there anymoreÖ

$Artist:Taylor Swift$
Tap to rate this tab
 
# A B C D E F G H I J K L M N O P Q R S T U V W X Y Z