Song name
# A B C D E F G H I J K L M N O P Q R S T U V W X Y Z

Taylor Swift - Innocent tab

-----------------------------------------------------------------------------
			Innocent (Intro) - Taylor Swift
-----------------------------------------------------------------------------
Play fingerpicked

CAPO 4

e|-------------------------------------|
B|-------------------------------------|
G|--------------------------------0----|
D|---2---3---2---2----2---3---2--------|
A|-0---0---0---0----3---3---3---3------|
E|-------------------------------------|

e|-------------------------------------|
B|---------------1---------------1-----|
G|-------------------------------------|
D|-------3---2-----------3---2---------|
A|---3---------------3-----------------|
E|-1---1---1---1---1---1---1---1-------|

Tap to rate this tab
 
# A B C D E F G H I J K L M N O P Q R S T U V W X Y Z