Song name
# A B C D E F G H I J K L M N O P Q R S T U V W X Y Z

Tchaikovsky Piotr - Swan Lake tab

Artist - Tchaikovsky
Song - Dance of the swans (Swan lake)
Main theme

Section A
E/--------------------------------------------------------------------3-2-------------------------------3-2-----------|
B/------------------------------1-1-1-1-----------3-1-------3-----------3---3p1-------------3------------3---3p1------|
G/---3-3-3-3---2h3/5-3-2---0-0-0-0---2h3---------3----------------------------3p2-0----------------------------3p2-0--|
D/---5-5-5-5----------------------------------------------------------------------------------------------------------|
A/--------------------------------------------------------------------------------------------------------------------|
E/--------------------------------------------------------------------------------------------------------------------|

Section B
E/--------------1-----------------------------------------------1-----------------------------------------------|
B/-3-3-3-3-3----4-3-1-----3---4------0--1----1-1-1-1-1----4-3-1----------------------1--------------------------|
G/-------------------------3----------3---------0-------------------------3---0--0--2-3-4--------------------0--|
D/--------------------------------------------------------------------------------------------------0-0-2-3-4---|
A/--------------------------------------------------------------------------------------------------------------|
E/--------------------------------------------------------------------------------------------------------------|

Back to Section A
Tap to rate this tab
# A B C D E F G H I J K L M N O P Q R S T U V W X Y Z