Song name
# A B C D E F G H I J K L M N O P Q R S T U V W X Y Z

Team William - First Snow tab

FIRST SNOW - TEAM WILLIAM

TABBE BY yannick.j152@hotmail.com

e|----9-----12-9----10-9---------9----12-9------10--9-------------------------------------|
B|-------10-----10----------------10---------10-------------------------------------------|
G|--9-------------------------7-----------------------------------------------------------|
D|----------------------------------------------------------------------------------------|
A|----------------------------------------------------------------------------------------|
E|----------------------------------------------------------------------------------------|

e|----9-----12-9----10-9---------9----12-9--9b9b------------------------------------------|
B|-------10-----10----------------10------------------------------------------------------|
G|--9-------------------------7-----------------------------------------------------------|
D|----------------------------------------------------------------------------------------|
A|----------------------------------------------------------------------------------------|
E|----------------------------------------------------------------------------------------|
Tap to rate this tab
# A B C D E F G H I J K L M N O P Q R S T U V W X Y Z