Song name
# A B C D E F G H I J K L M N O P Q R S T U V W X Y Z

Tears For Fears - Mad World chords

Erm... Hello! This is my first guitar tab.

I kind of combined/edited two tabs belonging to Vermox
(http://tabs.ultimate-guitar.com/g/gary_jules/mad_world_ver3_tab.htm) and an anonymous 
user (http://tabs.ultimate-guitar.com/t/tears_for_fears/mad_world_tab.htm).

It sounds best played with a capo on the first fret, but it can be played without one.

Intro:
e:-----5-------------------------------5-------------5-----5--------|
B:---6---5-6-3-5---------3-----3-----6---5-6-3-5-6-8----5-----5-----|
G:----------------5-4----4-----4------------------------6-----6-----|
D:--------------------5-----9---------------------------------------|
A:------------------------------------------------------------------|
E:------------------------------------------------------------------|
No vocals.

Verse:
e:------------------------------------------------------------------|
B:-----0-------0-------3-------3-----------------------5-------5----|
G:-----0-------0-------4-------4-------2-------2-------6-------6----|
D:-2-------2-------5-------5-----------4-------4---7-------7--------|
A:---------------------------------5-------5------------------------|
E:------------------------------------------------------------------|
1. 'All around me are familiar faces...'
2. 'Children waiting for the day they feel good...'

Chorus (Part One):
e:------------------------------------------------------------------|
B:-----0-------0-------3-------3------------------------------------|
G:-----0-------0-------4-------4------------------------------------|
D:-2-------2-------5-------5----------------------------------------|
A:------------------------------------------------------------------|
E:------------------------------------------------------------------|
'And I find it kind of funny...'

Chorus (Part Two):
e:------------------------------------------------------------------|
B:-----0-------0-------3-------3-----------------------5-------5----|
G:-----0-------0-------4-------4-------2-------2-------6-------6----|
D:-2-------2-------5-------5-----------4-------4---7-------7--------|
A:---------------------------------5-------5------------------------|
E:------------------------------------------------------------------|
'Mad world, mad world.'
Note: Each repetition of the words 'mad world,' lasts two full chords.

Half-Outro (not really an outro, but y'know...):
e:------------------------------------------------------------------|
B:-----0-------0-------3-------3-----------------------5-------5----|
G:-----0-------0-------4-------4-------2-------2-------6-------6----|
D:-2-------2-------5-------5-----------4-------4---7-------7------2-|
A:---------------------------------5-------5------------------------|
E:------------------------------------------------------------------|

Thanks! I hope you like it!
Tap to rate this tab
# A B C D E F G H I J K L M N O P Q R S T U V W X Y Z