Song name
# A B C D E F G H I J K L M N O P Q R S T U V W X Y Z

Tears For Fears - Shout tab

This solo's tone is a bit tricky to get ... i think u should put the 5-way 
selector switch toward you with your tone knob(s) at full. I personally like 
to put a little tube amp distortion behind it for a great. This might be 
done on a synth but i think this works just as well.

|------------------------|-------------------------------------|
|------------------------|-------13/15------------11--------11-|
|12~----12~----12~---12~-|-10h12----------10--h12-----10h12----|
|------------------------|-------------------------------------|
|------------------------|-------------------------------------|
|------------------------|-------------------------------------|


|13------------------------------------------------------------------------|
|----16p15----13p11-----------------------13/15---11----------13/15--11----|
|---------------------12p10--10--12-10h12------------12p10h12-----------12-|
|--------------------------------------------------------------------------|
|--------------------------------------------------------------------------|
|--------------------------------------------------------------------------|


|-----------------------------------------------------|-18p17----------|
|---------------------------/20~20-20-20~-20~20-20~20-|-------18-------|
|10h12--10h12--10h12--10h12---------------------------|----------19~---|
|-----------------------------------------------------|----------------|
|-----------------------------------------------------|----------------|
|-----------------------------------------------------|----------------|


|-----------------------13~---------------------------------------------|
|11--13-15---11--13-15-------16p15--13p11-----------------11----13/15---|
|-------------------------------------------12p10--10--12----12---------|
|-----------------------------------------------------------------------|
|-----------------------------------------------------------------------|
|-----------------------------------------------------------------------|


|-------------------------------------------|
|11----13/15-------18----18----18----18-----|
|---12--------/19-----19----19----19----19\-|
|-------------------------------------------|
|-------------------------------------------|
|-------------------------------------------|

Have fun learning this great solo and remember to put your selector switch towards you.
Tap to rate this tab
# A B C D E F G H I J K L M N O P Q R S T U V W X Y Z