Song name
# A B C D E F G H I J K L M N O P Q R S T U V W X Y Z

Technicolor Fabrics - Frequency tab

Intro:
e|----5-5--5-5----3-3---5-5--|
B|----6-6--6-6----5-5---5-5--|
G|--7---7--7-7--5---5---5-5--|
D|---------------------------|
A|---------------------------|
E|---------------------------|

Tema:
e|--------55--3h5---------55--3h5---------88--------88-|
B|--6-3--3----------6-3--3---------8--6-6----8--6-6----|
G|-----------------------------------------------------|
D|-----------------------------------------------------|
A|-----------------------------------------------------|
E|-----------------------------------------------------|

e|--------55--3h5---------55--3h5---------88-----------|
B|--6-3--3----------6-3--3---------8--6-6----8--6-6----|
G|-----------------------------------------------------|
D|-----------------------------------------------------|
A|-----------------------------------------------------|
E|-----------------------------------------------------|


Verso (Pt.1):                         x2
e|--------5-------5-------3-------3-|
B|------6-------6-------5-------5---|
G|----7-------7-------5-------5-----|
D|--7-------7-------5-------5-------|
A|----------------------------------|
E|----------------------------------|

Verso (Pt.2):                                                x2
e|---------------------------------------------------------|
B|----6---8--6------6---8--6------5---6--5-----5---6--5----|
G|------7------7------7------7------5------5-----5------5--|
D|--7-------------7-------------5-------------5------------|
A|---------------------------------------------------------|
E|---------------------------------------------------------|

Intro, Tema

Rasgueo:                                     x2
e|--5-5--5-5--5-5--5-5--3-3--3-3--3-3--3-3--|
B|--6-6--6-6--6-6--6-6--5-5--5-5--5-5--5-5--|
G|--7-7--7-7--7-7--7-7--5-5--5-5--5-5--5-5--|
D|--7-7--7-7--7-7--7-7--5-5--5-5--5-5--5-5--|
A|--5-5--5-5--5-5--5-5--3-3--3-3--3-3--3-3--|
E|------------------------------------------|

Precoro:                                     x2
e|------------------------------------------|
B|------------------------------------------|
G|----7----5----3----2----5----3----2----3--|
D|--8----7----5----3----7----5----3----2----|
A|------------------------------------------|
E|------------------------------------------|

Tema

Interlude:
e|--------------------8-----13-12-8---8--|
B|-----8----8----8------10----------10---|
G|--10---10---10---10--------------------|
D|---------------------------------------|
A|---------------------------------------|
E|---------------------------------------|

Rasgueo, Tema

disfruten, es muy buena banda technicolor fabrics

"she has a room in my mind"  
para ella, que es mi razón para escuchar esta canción...

www.myspace.com/technicolorfabrics
Tap to rate this tab
# A B C D E F G H I J K L M N O P Q R S T U V W X Y Z