Song name
# A B C D E F G H I J K L M N O P Q R S T U V W X Y Z

Teddy Geiger - Bitter tab

Help us improve GuitareTab! Take a short survey!
Song from the rocker dont know if the verse/chorus is right its not mine

e----------------------------------------------------------------------|
b----------------------------------------------------------------------|
g------------------------------4-----4-----5-----5---------------------|
d---5------5------4------4-------5-----5-----5-----5-------------------|
a-----5------5------5------5-------5-----5-----5-----5-----------------|
e-------7------7------7------7-----------------------------------------|


Verse/Chorus:

-------------------------------------------------------|
-------------------------------------------------------|
-----------5-----------------4-------5-----------------|
--5--------5--------5--------4-------5-----------------|
--5--------3--16x---5--------2--8x---3--8x-------------|
--3--16x------------3--16x-----------------------------|
Related for Bitter tab