Teddy Pendergrass - Somebody Told Me chords

Highlighted       Show chord diagrams
Somebody Told Me - Teddy Pendergrass

The legendary R&B singer...
http://www.teddypendergrass.com/teddymain.html

| E | A | E | A | E | A | E | A |

| E | A | E | A | E | A | E | A | 

| A B/Eb | A B/Eb | A B/Eb | A B/Eb | A B/Eb | A B/Eb | A B/Eb | A B/Eb |

| A E F#m | A E F#m E | A E F#m | B | A E F#m | A E F#m E | A E F#m | B |

| E | A | E | A | E | A | E | A |

| A B/Eb | A B/Eb | A B/Eb | A B/Eb | A B/Eb | A B/Eb | A B/Eb | A B/Eb |

| A E F#m | A E F#m E | A E F#m | B | A E F#m | A E F#m E | A E F#m | B |

| E | A | E | A | E | A | E | A |

| A E F#m | A E F#m E | A E F#m | B | A E F#m | A E F#m E | A E F#m | B |

| E | A | E | A | E | A | E | A |

| E | A | E | A | E | A | E | A |

| E | A | E | A | E | A | E | A | E | A | E | A | E | A | E | A |

| E | A | E | A | E | A | E | A |

| E | A | E | A | E | A | E | A |


(Chord Voicings)
 | A         B/Eb  |
E------------------|
B--5--2--5---4-----|
G--2--2--2---4-----|
D--2--2--2---4-----|
A------------6-----|
E------------------|



 | A  E  F#m | A  E  F#m E |
E--------------------------|
B--5--5--2-----5--5--2---0-|
G--6--4--2-----6--4--2---1-|
D--7--6--4-----7--6--4---2-|
A--------------------------|
e--------------------------|
Tap to rate this tab
 
# A B C D E F G H I J K L M N O P Q R S T U V W X Y Z