Guitaretab - guitar tabs
Song name
# A B C D E F G H I J K L M N O P Q R S T U V W X Y Z

Teddybears Sthlm - Cobra Style tab

-------------------------------------------------------------------------------
Cobra Style  Teddybears Stockholm
-------------------------------------------------------------------------------
Tabbed by: Aaron Guido		
Email:Johnnytightlips3@hotmail.com

Tuning: Standard (EADGBe)
 
pretty easy, right?

[ Tab from: http://www.guitaretab.com/t/teddybears-sthlm/77874.html ]
       D                 D     F  
e|------------------------------------------||
B|------------------------------------------||
G|--(x)-7-7-----------(x)-7-7--10-10--------||
D|--(x)-7-7-----------(x)-7-7--10-10--------||
A|--(x)-5-5-----------(x)-5-5---8--8--------||
E|------------------------------------------||
     F                       G                      D             
e|-------------------------------------------------------------------||
B|-------------------------------------------------------------------||
G|--10-10-10-10-10-10-10-10/12-12-12-12-12-12-12-12\7-7-7-7-7-7-7-7--||
D|--10-10-10-10-10-10-10-10/12-12-12-12-12-12-12-12\7-7-7-7-7-7-7-7--||
A|---8--8--8--8--8--8--8--8/10-10-10-10-10-10-10-10\5-5-5-5-5-5-5-5--||
E|-------------------------------------------------------------------||

Related for Cobra Style tab