Song name
# A B C D E F G H I J K L M N O P Q R S T U V W X Y Z

Tedeschi Trucks Band - The Storm chords

Highlighted       Show chord diagrams
-------------------------------------------------------------------------------
                             THE STORM - Tedeschi Trucks Band
-------------------------------------------------------------------------------
Tabbed by: 6tones
E-mail: violinguitars@gmail.com

This simple version’s for all us non-open E slide players…
Use E Dorian or (Em Pentatonic)scales throughout lead parts. 
Chords are marked for campfire sing-a-long..

Tuning: Standard

   E riff  (Used constantly)
e|-0------0--0--0--------------------------------|
B|-3-/-5--5--5--5-\-3--0-------------------------|
G|------------------------1h2p1------------------|
D|--------------------------------2-----0-1-2----|
A|-----------------------------------------------|
E|-----------------------------------0---------0-|

  E melody with vocals          E riff
e|--------------7--7--5--5---|
B|--8--5--8--5-------------8-|
G|---------------------------|
D|---------------------------|
A|---------------------------|
E|---------------------------|

    G [ch]F#/G[/ch]  A        E riff  
e|--0---0---0--|
B|--3---3---5--|
G|--0---0---0--|
D|-------------|
A|-------------|
E|--3---2---5--|


(E riff) 4x

E (melody)                (A)      E
Storm is raging,  Trouble  on  its way

Cars are floating, Down the west highway

G                  [ch]F#/G[/ch]      A       E 
Fire's burning,  In my  neighbor-hood

Water's rising, Thought it never would

E (melody)                   (A)     E
They came and told me,  Got to move  a-way

I didn't believe them,   Said I'm  gonna    stay

G                    [ch]F#/G[/ch]     A       E 
Nowhere to turn to,  No place left to hide

Build me a sea wall,   Wait  it  out in-side

F G 
F G 
F G 
E F# A 

E riff 2x

E (melody)                       (A)      E
Wind starts howling,  Storm starts moving in

Storm gonna rise up,  No   where    left to stay

G                     [ch]F#/G[/ch]      A      E 
Full moon rising,    Hard times coming back

You can't deny it,   Change has come at last ... at last

F G 
F G 
F G E
E F# A
E F# A

E  Jam it out!!

************************************

| /   slide up
| \   slide down
| h   hammer-on
| p   pull-off
| ~   vibrato
| +   harmonic
| x   Mute note
| b   Bend
| pb  Pre-bend
| br  Bend release
| pbr Pre-bend release
| brb Bend release bend

************************************
Tap to rate this tab
# A B C D E F G H I J K L M N O P Q R S T U V W X Y Z