Song name
# A B C D E F G H I J K L M N O P Q R S T U V W X Y Z

Tedeschi Trucks Band - Midnight In Harlem tab

Opening Riff 
Open E Tuning

E-------0-------0---------0--------0--------0-------0--------0---0---|
B-----0---0--2----0----2/4--0----2----0---0----0--2---0---2/4--4---5-|
G#---3--------------3---------3---------3--------------3-------------|
E--------------------------------------------------------------------|
B--------------------------------------------------------------------|
E--------------------------------------------------------------------|

E-----------------5--------------------|
B----7/9/7----7/9----9/7---------------|
G#---5-5-5--- 5-5----5-5---------------| 
E----5-5-5----5-5----5-5---------------|
B--------------------------------------|
E--------------------------------------|

Website= https://www.derekandsusan.net/
Tap to rate this tab
 
# A B C D E F G H I J K L M N O P Q R S T U V W X Y Z