Teen Suicide - The Same Things Happening To Me All The Time Even In My Dreams tab

-------------------------------------------------------------------------------
        THE SAME THINGS HAPPEN TO ME ALL THE TIME EVEN IN MY DREAMS
-------------------------------------------------------------------------------
By: teen suicide

Tuning: Standard
                            Sometimes play this after. listen to the song for guidance
e|----------------------------------|--------------|
B|----------------------------------|--------------|
G|-----5s7s5------------------------|--------------|
D|-------------5-------5ph7ph5------|-5ph7ph5------|
A|-----------------------------5----|----------5---|
E|--6-------6----6------------------|--------------|
**tab taken from zts24's tab because it is spot on.

Next another guitar comes in and plays the same thing an octave up

Jam on these 2 chords.  Sweet chords.
  Bbmaj9    C6/9
e|---------------------|
B|-6--------8----------|
G|-5--------7----------|
D|-7--------7----------|
A|---------------------|
E|-6--------8----------|

WHEN YOU DISAPPOINT EVERYONE ALL THE TIME ITS HARD NOT TO WANT TO DIE


during this part on the repeat I like to switch my pickup to get a different
timbre.  Do it if your guitar allows you!
                                                    Note this 5 haha
e|--8-8-8-8-8-8-8-8-8-8-8-8-8-8-8-8-8-8-8-8-8-8-8-8-5-------------|
B|--6-6-6-6-6-6-6-6-6-6-6-6-6-6-6-6-6-6-6-6-6-6-6-6-6-------------|
G|----------------------------------------------------------------| x 2
D|--8-8-8-8-8-8-8-8-8-8-8-8-8-8-8-8-8-8-8-8-8-8-8-8-8-------------|
A|----------------------------------------------------------------|
E|----------------------------------------------------------------|

When the drums come in add the bass note with your thumb.
it helps flesh out the chords.  Also note how you use the 5 on the high E more often
mute the open strings with your fingers. duh.

e|--8-8-8-8-8-8-8-8-8-8-8-5-8-8-8-8-5-8-8-8-8-8-8-8-8-------------|   
B|--6-6-6-6-6-6-6-6-6-6-6-6-6-6-6-6-6-6-6-6-6-6-6-6-6-------------|
G|----------------------------------------------------------------| 
D|--8-8-8-8-8-8-8-8-8-8-8-8-8-8-8-8-8-8-8-8-8-8-8-8-8-------------|
A|----------------------------------------------------------------|
E|--6-6-6-6-6-6-6-6-6-6-6-6-6-6-6-6-6-6-6-6-6-6-6-6-6-------------|

e|-8-8-8-8-8-8-8-8-8-5-8-8-8-5-8-8-8-8-8-8-8-8-8-8-8-8---------|
B|-6-6-6-6-6-6-6-6-6-6-6-6-6-6-6-6-6-6-6-6-6-6-6-6-6-6---------|
G|-5-5-5-5-5-5-5-5-5-5-5-5-5-5-5-5-5-5-5-5-5-5-5-5-5-5---------|
D|-7-7-7-7-7-7-7-7-7-7-7-7-7-7-7-7-7-7-7-7-7-7-7-7-7-7---------|
A|-5-5-5-5-5-5-5-5-5-5-5-5-5-5-5-5-5-5-5-5-5-5-5-5-5-5---------|
E|-------------------------------------------------------------|

This^ is a weird one, play it however you want.  This is how I do it.
the texture is a little thick compared to the previous chord

Song ends with some backwards reverb delay thing.
Tap to rate this tab
 
# A B C D E F G H I J K L M N O P Q R S T U V W X Y Z