Song name
# A B C D E F G H I J K L M N O P Q R S T U V W X Y Z

Teenage Bottlerocket - Crashing tab

-------------------------------------------------------------------------------
           CRASHING - Teenage Bottlerocket
-------------------------------------------------------------------------------
Tabbed by: Curtis Fisher
Email: cmf@phnxmusic.net

Tuning: Standard

Listen to song for rhythm
and use downstrokes only.

..1,2,3,4!

INTRO
e|------------------|
B|------------------|
G|--9-9-9-8---------|
D|--9-9-9-8-[~x32]--|
A|--7-7-7-6---------|
E|------------------|

Part B
e|--------------------------------------|
B|--------------------------------------|
G|--9-9-9-9-9-9-9-9-------5-5-5-5-------|
D|--9-9-9-9-9-9-9-9-[x8]--5-5-5-5-[x8]--|
A|--7-7-7-7-7-7-7-7-------3-3-3-3-------|
E|--------------------------------------|

Part C
e|----------------------------------------------------|
B|----------------------------------------------------|
G|--9-9-9-9-9-9-9-9-------5-5-5-5-------2-2-2-2-------|
D|--9-9-9-9-9-9-9-9-[x4]--5-5-5-5-[x8]--2-2-2-2-[x8]--| [x3]
A|--7-7-7-7-7-7-7-7-------3-3-3-3-------0-0-0-0-------|
E|----------------------------------------------------|

Part D
e|------------------------|
B|------------------------|
G|--9-9-9-9-9-9-9-9-------|
D|--9-9-9-9-9-9-9-9-[x8]--|
A|--7-7-7-7-7-7-7-7-------|
E|------------------------|

INTRO
Part B
Part C x3
Part D

| /  slide up
| \  slide down
| h  hammer-on
| p  pull-off
| ~  vibrato
| +  harmonic
| x  Mute note
===============================================================================
Tap to rate this tab
# A B C D E F G H I J K L M N O P Q R S T U V W X Y Z