Song name
# A B C D E F G H I J K L M N O P Q R S T U V W X Y Z

Tegan And Sara - Northshore tab

Artist: Tegan and Sara
Album: Sainthood (2009)

(0:00 - 0:04) (1x)
Intro - Listen for strum pattern
e|----------------------------|
B|----------------------------|
G|-------------9-9------------|
D|-11-11-11-11-7-7-7-7-7-7/9-9|
A|--9--9--9--9-----5-5-5-5/7-7|
E|----------------------------|

Verse (0:04 - 0:16) (4x)
e|----------------------------|
B|----------------------------|
G|-------------9-9------------|
D|-11-11-11-11-7-7-7-7-7-7-9-9|
A|--9--9--9--9-----5-5-5-5-7-7|
E|----------------------------|

Chorus (0:17 - 0:26) 
e|-------------------------------------------|
B|-------------------------------------------|
G|-------------------------------------------|
D|1111111111111111-77777777----------99999999|
A|9-9-9-9-9-9-9-9--55555555-77777777-77777777|
E|--------------------------55555555---------|

Intro (0:26 - 0:30
e|----------------------------|
B|----------------------------|
G|-------------9-9------------|
D|-11-11-11-11-7-7-7-7-7-7/9-9|
A|--9--9--9--9-----5-5-5-5/7-7|
E|----------------------------|

Verse 2 (0:30 - 0:42) (4x)
e|----------------------------|
B|----------------------------|
G|-------------9-9------------|
D|-11-11-11-11-7-7-7-7-7-7/9-9|
A|--9--9--9--9-----5-5-5-5/7-7|
E|----------------------------|

Chorus 2 (0:43 - 0:51)
e|-------------------------------------------|
B|-------------------------------------------|
G|-------------------------------------------|
D|1111111111111111-77777777----------99999999|
A|9-9-9-9-9-9-9-9--55555555-77777777-77777777|
E|--------------------------55555555---------|

Intro (0:52 - 0:57)(2x)
e|----------------------------|
B|----------------------------|
G|-------------9-9------------|
D|-11-11-11-11-7-7-7-7-7-7/9-9|
A|--9--9--9--9-----5-5-5-5/7-7|
E|----------------------------|

Bridge (0:58 - 1:07) (4x)
e|-----------|
B|-----------|
G|---99------|
D|11-77-77-99|
A|-9----55-77|
E|-----------|

Intro (1:07 - 1:11)
e|----------------------------|
B|----------------------------|
G|-------------9-9------------|
D|-11-11-11-11-7-7-7-7-7-7/9-9|
A|--9--9--9--9-----5-5-5-5/7-7|
E|----------------------------|

Verse 3 (1:11 - 1:23)
Just bass for the first half then
(2x)
e|----------------------------|
B|----------------------------|
G|-------------9-9------------|
D|-11-11-11-11-7-7-7-7-7-7/9-9|
A|--9--9--9--9-----5-5-5-5/7-7|
E|----------------------------|

Chorus (1:24 - 1:33)
First half is just bass, come in at (1:34)
Play this until the end at (2:03)
e|-------------------------------------------|
B|-------------------------------------------|
G|-------------------------------------------|
D|1111111111111111-77777777----------99999999|
A|9-9-9-9-9-9-9-9--55555555-77777777-77777777|
E|--------------------------55555555---------|

Tap to rate this tab
 
# A B C D E F G H I J K L M N O P Q R S T U V W X Y Z