Tegan And Sara - I Bet It Stung tab

This is an awesome song if you want to rock and these ladies do it best! Give it a 
go! It's 100% correct! Enjoy!

Artist: Tegan and Sara
Song: I Bet It Stung
Album: So Jealous
Tuning: Standard

Intro

e |----x------------x--------|
B |----x------------x--------|
G |----11-----------6--------| 
D |----12-----------7--------|
A |----12-----------7--------| 	
E |----10-----------5--------|

Verse

e |----x------------|
B |----x------------|
G |----11-----------| 
D |----12-----------|
A |----12-----------| 	
E |----10-----------|


I know you plan out everything that you want to say

e |------x--------|
B |------x--------|
G |------6--------| 
D |------7--------|
A |------7--------| 	
E |------5--------|

e |----x-----------|
B |----x-----------|
G |----11----------| 
D |----12----------|
A |----12----------| 	
E |----10----------|

I wish that we didn't have to go about things this way

e |------x--------|
B |------x--------|
G |------6--------| 
D |------7--------|
A |------7--------| 	
E |------5--------|

e |----x------------|
B |----x------------|
G |----11-----------| 
D |----12-----------|
A |----12-----------| 	
E |----10-----------|

Pre- chorus

I love the rock and roll, I love the rock and roll

e |------x--------|
B |------x--------|
G |------6--------| 
D |------7--------|
A |------7--------| 	
E |------5--------|

e |----x------------|
B |----x------------|
G |----11-----------|  (Optional)
D |----12-----------|
A |----12-----------| 	
E |----10-----------|

Don't get so uptight, don't get so uptight

e |------x--------|
B |------x--------|
G |------6--------| 
D |------7--------|
A |------7--------| 	
E |------5--------|

Chorus

e |--x-----x----------x--------|
B |--x-----x----------7--------|
G |--4-----11---------0--------| 
D |--5-----12---------9--------|
A |--5-----12---------9--------| 	
E |--3-----10---------0--------|

Go, go away

Interlude

e |----x------------x--------|
B |----x------------x--------|
G |----11-----------6--------| 
D |----12-----------7--------|
A |----12-----------7--------| 	
E |----10-----------5--------|

Verse 2

Tell me you love me like you think you want to be loved
Pull on my hand and say, please just let's make it this way

Pre- chorus

Chorus (x2)

Outro

e |------x--------|
B |------7--------|
G |------0--------| 
D |------9--------|
A |------9--------| 	
E |------0--------|

Tap to rate this tab
 
# A B C D E F G H I J K L M N O P Q R S T U V W X Y Z