Guitaretab - guitar tabs
Song name
# A B C D E F G H I J K L M N O P Q R S T U V W X Y Z

Tegan And Sara - Walking With A Ghost tab

-------------------------------------------------------------------------------
                 'Walking With A Ghost,' By Tegan and Sara
-------------------------------------------------------------------------------
Tabbed by:dez15
Email:vo_debra@hotmail.com

Tuning:Standard

Intro/Verse 1
e|----5-5---2-2---4-4-4----2-------------------------------------------------|
B|----7-7---3-3---5-5-5----3-------------------------------------------------|
G|----6-6---2-2---4-4-4----2-------------------------------------------------|
D|---------------------------------------------------------------------------|
A|---------------------------------------------------------------------------|
E|---------------------------------------------------------------------------|

Chorus
e|----9-9------5-5-----7-7-7----5--------------------------------------------|
B|----9-9------5-5-----7-7-7----5--------------------------------------------|
G|----9-9------6-6-----8-8-8----6--------------------------------------------|
D|---11-11-----7-7-----9-9-9----7-----x4-------------------------------------|
A|---11-11-----7-7-----9-9-9----7--------------------------------------------|
E|----9-9------5-5-----7-7-7----5--------------------------------------------|
[ Tab from: http://www.guitaretab.com/t/tegan-and-sara/56490.html ]
Verse 2
e|-----9---9-----5-5-----7-7-7-----5-----------------------------------------|
B|-----10-10-----5-5-----7-7-7-----5-----------------------------------------|
G|-----11-11-----7-7-----9-9-9-----7-----------------------------------------|
D|-----11-11-----7-7-----9-9-9-----7--x4-------------------------------------|
A|-----9--9------5-5-----7-7-7-----5-----------------------------------------|
E|-----9--9------5-5-----7-7-7-----5-----------------------------------------|


Chorus
e|----9-9------5-5-----7-7-7----5--------------------------------------------|
B|----9-9------5-5-----7-7-7----5--------------------------------------------|
G|----9-9------6-6-----8-8-8----6--------------------------------------------|
D|---11-11-----7-7-----9-9-9----7-----x4-------------------------------------|
A|---11-11-----7-7-----9-9-9----7--------------------------------------------|
E|----9-9------5-5-----7-7-7----5--------------------------------------------|

Verse 3
e|-----9---9-----5-5-----7-7-7-----5-----------------------------------------|
B|-----10-10-----5-5-----7-7-7-----5-----------------------------------------|
G|-----11-11-----7-7-----9-9-9-----7-----------------------------------------|
D|-----11-11-----7-7-----9-9-9-----7--x4-------------------------------------|
A|-----9--9------5-5-----7-7-7-----5-----------------------------------------|
E|-----9--9------5-5-----7-7-7-----5-----------------------------------------|


Chorus
e|----9-9------5-5-----7-7-7----5--------------------------------------------|
B|----9-9------5-5-----7-7-7----5--------------------------------------------|
G|----9-9------6-6-----8-8-8----6--------------------------------------------|
D|---11-11-----7-7-----9-9-9----7--continue-until-end------------------------|
A|---11-11-----7-7-----9-9-9----7--------------------------------------------|
E|----9-9------5-5-----7-7-7----5--------------------------------------------|




| /  slide up
| \  slide down
| h  hammer-on
| p  pull-off
| ~  vibrato
| +  harmonic
| x  Mute note
===============================================================================
Related for Walking With A Ghost tab