Song name
# A B C D E F G H I J K L M N O P Q R S T U V W X Y Z

Television - See No Evil tab

"See No Evil"
by Television
from Marquee Moon


Intro
Guitar 1 (Tom)
  G5
e--------------------------------------------------------|
B--------------------------------------------------------|
G--------------------------------------------------------|
D--------------------------------------------------------|
A-5-5-5--5-5-5--5-5-5--5-5-5--5-5-5--5-5-5--5-5-5--5-5-5-|
E-3-3-3--3-3-3--3-3-3--3-3-3--3-3-3--3-3-3--3-3-3--3-3-3-|

Verse
                              F5         C7
e---------------------------------------6-6--6-6------|
B---------------------------------------5-5--5-5------|
G----------------------------(2)--------5-5--5-5------|
D-----------------------------3-3-3--3--5-5--5-5------|
A-5-5-5--5-5-5--5-5-5--5-5-5--3-3-3--3----------------|
E-3-3-3--3-3-3--3-3-3--3-3-3--1-1-1--1----------------|

Guitar 2 (Richard)
over G5
e-----------------|
B-----0-0h1p0-----|
G-0-2-0-0-----2-0-|
D-0-2---------2-0-|
A-----------------|
E-----------------|
over F5
e-----------------|
B-----0-0h1p0-----|
G-0-2-0-0-----2-2-|
D-0-2---------3-3-|
A-----------------|
E-----------------|
over C7
e-----------------|
B-1-3-5-5b6r3-----|
G-2-3-5-5b6r3-5-5-|
D-------------5-5-|
A-----------------|
E-----------------|
into Chorus
e-------|
B-------|
G-0-2-0-|
D-0-2-0-|
A-------|
E-------|


Chorus
Guitar 1 (Tom)
  Dsus2           Dsus2           Dsus2
e-5---------------5---------------5---------------|
B-5---------------5---------------5---------------|
G-7---------------7---------------7---------------|
D-7---------------7---------------7---------------|
A-5---------------5---------------5---------------|
E-------------------------------------------------|

  G5            C5
e----------------------------------------------|
B----------------------------------------------|
G---------------5------------------------------|
D---------------5------------------------------|
A-5-5--5-5--5-5-3--2-2-1-1-0-0-----------------|
E-3-3--3-3--3-3----------------4-4-0-0-1-1-2-2-|

Guitar 2 (Richard)
This throughout the whole chorus, you should know where to stop by listening
e-3-------3--------3--------3--------3-||
B-------0--------0--------0--------0---||
G-----5--------5--------5--------5-----|| x 4
D--------------------------------------||
A--------------------------------------||
E--------------------------------------||
5th time              evil!
e-3-------3----------------------------|
B-------0--------0---------------------|
G-----5--------5-----------------------|
D--------------------------------------|
A--------------------------------------|
E--------------------------------------|

1/2 Intro
Verse
Chorus

Here's the first part of Verlaine's solo, but you'll have to figure out the ridiculously 
fast and wanky parts on your own.
Guitar 1 (Tom)
e-------------------------------12---------|
B-------12-13-----12---12-13-15--------15--|
G-12-14------------------------------------|
D------------------------------------------|
A------------------------------------------|
E------------------------------------------|
cont.
e----12-13-15-----12---12-13-15-17-----15--|
B-15---------------------------------------|
G------------------------------------------|
D------------------------------------------|
A------------------------------------------|
E------------------------------------------|
cont.
e-17--18---18-18---17-15--------15h17p15---|
B--------------------------17--------------|
G------------------------------------------| etc.
D------------------------------------------|
A------------------------------------------|
E------------------------------------------|

Guitar 2 (Richard) plays entire verse riff during solo.

Verse
Chorus
1/2 Intro

Coda
Guitar 1 (Tom)
  C7           G5
e-------6-6---6-6-------------------||
B-------5-5---5-5-------------------||
G-------5-5---5-5-------------------|| repeat until fade out
D-------5-5---5-5-------------------||
A-------------------------5-5---5---||
E-------------------------3-3---3---||

Guitar 2 (Richard)
e-----------------------------------||
B-----3-5b6r3(5)--------0-0h1p0-----||
G-0-2-3-5b6r3-5-5---0-2-0-0-----2-0-|| repeat until fade out
D-0-2---------5-5---0-2---------2-0-||
A-----------------------------------||
E-----------------------------------||

Guitar 3 (overdub)
e-----------------------------------||
B-----------------------------------||
G-----------------------------------||
D-----------------------------------||
A---------2-2-1-1-0-0---------------||
E---(3)/--------------4-4-3-----3---||

That's it.
Please feel free to leave comments, corrections, requests, and suggestions. Cheers!

-Bennyshambles78-
Tap to rate this tab
 
# A B C D E F G H I J K L M N O P Q R S T U V W X Y Z