Song name
# A B C D E F G H I J K L M N O P Q R S T U V W X Y Z

Tempercalm - Vanity tab

TEMPERCALM

Vanity (From debut album "True Novella")
Official Website: www.tempercalm.com

Tabbed by Jon Renemy
--------------------
This is mostly right, it's a great riff and song.
You'll need to figure out the timing, but it's very straightforward.



MAIN RIFF - INTRO / OUTRO

E|--------------------------------------------------------------------------|
B|--------------------------------------------------------------------------|
G|--------------------------------------------------------------------------|
D|------------------------0-3h5-----------------5p3p0---------5p3p0---------|
A|-----------------0-3h5---------0-3h5-----------------5p3p0--------5p3p0---|
D|--0-0-0-0-0-3h5-----------------------0-0-0-0-----------------------------|


VERSES

  "...All we see is your vanity..."
E|--------------------------------------|
B|--------------------------------------|
G|--------2-------7-------4-------7/9---|
D|--0-0-0---0-0-0---0-0-0---0-0-0-------|
A|--0-0-0---0-0-0---0-0-0---0-0-0-------|
D|--0-0-0---0-0-0---0-0-0---0-0-0-------|


CHORUSES

  "...waiting for the break..."
E|------------------------------------------------|
B|------------------------------------------------|
G|--7-7-7-7----7-7-7-7----9-9-9-9-9-9-9-9---------|
D|--5-5-5-5----4-4-4-4----7-7-7-7-7-7-7-7---------|
A|--5-5-5-5----4-4-4-4----7-7-7-7-7-7-7-7---------|
D|--5-5-5-5----4-4-4-4----7-7-7-7-8-8-8-8---------|


MIDDLE 8

E|----------------------------------------------------------------------------------------|
B|----------------------------------------------------------------------------------------|
G|----------------------------------------------------------------------------------------|
D|----------------3--5-----------5--3-----------------------3--5----------5--3------------|
A|----------3--5-----------------------5--3-----------3--5----------------------5--3------|
D|--0-0-0-0-------------0-0-0-0--------------0-0-0-0-------------0-0-0-0------------------|

E|----------------------------------------------------------------------------------------|
B|----------------------------------------------------------------------------------------|
G|----------------------------------------------------------------------------------------|
D|----------------3-4-5-----------5-4-3-----------------------3-4-5----------5-4-3--------|
A|----------3-4-5-----------------------5-4-3-----------3-4-5----------------------5-4-3--|
D|--0-0-0-0-------------0-0-0-0----------------0-0-0-0--------------0-0-0-0---------------|




Tap to rate this tab
 
# A B C D E F G H I J K L M N O P Q R S T U V W X Y Z