Guitaretab - guitar tabs
Song name
# A B C D E F G H I J K L M N O P Q R S T U V W X Y Z

Templars - Push And Shove tab

Band: Templars
Song: Push and Shove


tabbed by jam9383@yahoo.com


Verse

e---------------------------------------------------------------------|
B---------------------------------------------------------------------|
G---------------9-9-9-9-9--5-5-5-5-5----------------------------------|
D----7-7-7-7-7--9-9-9-9-9--5-5-5-5-5--5-5-5-5-5-----------------------|
A----7-7-7-7-7--7-7-7-7-7--3-3-3-3-3--5-5-5-5-5-----------------------|
E----5-5-5-5-5------------------------3-3-3-3-3-----------------------|

Chorus
[ Tab from: http://www.guitaretab.com/t/templars/137509.html ]
e---------------------------------------------------------------------|
B---------------------------------------------------------------------|
G---9-9-9-9-9---12-12-12-12-12---7--7--7--7---------------------------|
D---9-9-9-9-9---12-12-12-12-12---7--7--7--7---------------------------|
A---7-7-7-7-7---10-10-10-10-10---5--5--5--5---------------------------|
E---------------------------------------------------------------------|

Bridge

e---------------------------------------------------------------------|
B---------------------------------------------------------------------|
G------------------7-7-7-7-7-7-7-7-9-9-9-9-9-9-9-9-7-7-7-7-7-7-7-7-7--|
D--5-5-5-5-5-5-5-5-7-7-7-7-7-7-7-7-9-9-9-9-9-9-9-9-7-7-7-7-7-7-7-7-7--|
A--5-5-5-5-5-5-5-5-5-5-5-5-5-5-5-5-7-7-7-7-7-7-7-7-5-5-5-5-5-5-5-5-5--|
E--3-3-3-3-3-3-3-3----------------------------------------------------|

any comments/corrections contact me,please rate
Related for Push And Shove tab