Song name
# A B C D E F G H I J K L M N O P Q R S T U V W X Y Z

Ten Foot Pole - Never Look Back tab

NEVER LOOK BACK - Ten Foot Pole

Intro:
e-|-----------------------------------------------------------------------|
B-|-----------------------------------------------------------------------|
G-|-----------------------------------------------------------------------|
D-|-2-2--2-2--2-2--2-2-5-5-5-5-9-9-9-9-2-2--2-2--2-2--2-2-5-5-5-5-9-9-9-9-|
A-|-0-0--0-0--0-0--0-0-3-3-3-3-7-7-7-7-0-0--0-0--0-0--0-0-3-3-3-3-7-7-7-7-|
E-|-----------------------------------------------------------------------|

Verse:palm.mute
e-|-----------------------------------------------------------------
B-|-----------------------------------------------------------------
G-|-----------------------------------------------------------------
D-|-2-2-2-2-2-2-2-2-5-5-5-5-5-5-5-5-----------------2-2-2-2-2-2-2-2-
A-|-0-0-0-0-0-0-0-0-3-3-3-3-3-3-3-3-5-5-5-5-5-5-5-5-0-0-0-0-0-0-0-0-
E-|---------------------------------3-3-3-3-3-3-3-3-----------------

e-|-------------------------------------------------------------------------|
B-|-------------------------------------------------------------------------|
G-|-------------------------------------------------------------------------|
D-|-2-2-2-2-2-2-2-2-10-10-10-10-10-10-10-10-5-5-5-5-5-5-5-5-----------------|
A-|-0-0-0-0-0-0-0-0--8--8--8--8--8--8--8--8-3-3-3-3-3-3-3-3-2-2-2-2-2-2-2-2-|
E-|---------------------------------------------------------0-0-0-0-0-0-0-0-|

Chorus:
e-|---------------------------------------------------------------------
B-|---------------------------------------------------------------------
G-|---------------------------------------------------------------------
D-|-----------------5-5-5-5---------------------------------------------
A-|-5-5-5-5-7-7-7-7-3-3-3-3-2-2-2-2-5-5-5-5-7-7-7-7-3-2-0-3-2-0-5-5-5-5-
E-|-3-3-3-3-5-5-5-5---------0-0-0-0-3-3-3-3-5-5-5-5-------------3-3-3-3-

e-|-------------------------------------------|
B-|-------------------------------------------|
G-|-------------------------------------------|
D-|---------5---------------------------------|
A-|-7-7-7-7-3-5-2-5-5-5-5-7-7-7-7-3-2-0-3-2-0-|
E-|-5-5-5-5---3-0-3-3-3-3-5-5-5-5-------------|

Solo:guitar1
e-|------------------------|
B-|------------------------|
G-|------10-12-10----------|
D-|-7-10----------7-10-----|
A-|-7------------------3-7-|
E-|-5----------------------|

Guitar2:
e-|-5-5-5-5-5-5-5-5-5-5-5-5-5/0-8-8-8-5-------5-8-5-5~-|
B-|-------------------------------------8-5-8----------|
G-|----------------------------------------------------|
D-|----------------------------------------------------|
A-|----------------------------------------------------|
E-|----------------------------------------------------|
Tap to rate this tab
# A B C D E F G H I J K L M N O P Q R S T U V W X Y Z