Song name
# A B C D E F G H I J K L M N O P Q R S T U V W X Y Z

Tenacious D - Malibu Nights tab

It is hard to pick up the guitar with jb's amazing vocals so this is the intro, im 75% 
correct

standard tuning
e
B
G
D
A
E
       ~~~~~
|---------------------------------------------------------------------------|
|---------------------------------------------------------------------------|
|---------------------------------------------------------------------------|
|---------------------------------------------------------------------------|
|--9-11--------9-XX-11--9-11-11--11-11-11----9-11-9-11-11-11^-9-7-----------|
|--0--0--------9-XX--0--0--0--0---0--0--0----0--0-0--0--0--0--0-0-----------|
{ONLY ONCE}   {^ REPEAT   ^     ^      THIS      ^         TWICE ^}


|---------------------------------------------------------------------------|
|---------------------------------------------------------------------------|
|---------------------------------------------------------------------------|
|--------------------------------9 X-X-11--9-11-11--11-11-11----------------|
|--9-XX-11--9-11-11--11-11-11----0-X-X--0--0--0--0---0--0--0----------------|
|--0-XX--0--0--0--0---0--0--0-----------------------------------------------|

{REPEAT ALL}
Tap to rate this tab
 
# A B C D E F G H I J K L M N O P Q R S T U V W X Y Z