Song name
# A B C D E F G H I J K L M N O P Q R S T U V W X Y Z

Tennis - Marathon tab

(/) Slide Up  (\) Slide Down  (h) Hammer On  (p) Pull Off  (b) Bend (r) Release (v) Vibrato


E|----------------------------------------------------------|  This is the part the organ plays.
B|----------------------------------------------------------|  But it also played before the oohs
G|----------------------------------------------------------|  Once, with the strings muted.
D|----------------------------------------------------------|
A|-----------------------------------------3----------------| x5
E|--8----8--8--7--5----5--5--7--3----3--3-----3----3--3--5--|



E|--0--0---0--0--0--| Play these rapidly.
B|--8--13--8--5--3--|
G|--9--14--9--6--4--|x2
D|------------------|
A|------------------|
E|------------------|



E|----------------------------------------------------------| Played once again.
B|----------------------------------------------------------|
G|----------------------------------------------------------|x6
D|----------------------------------------------------------|
A|-----------------------------------------3----------------|
E|--8----8--8--7--5----5--5--7--3----3--3-----3----3--3--5--|



E|--0--0---0--0--0----0--0---0--0--0--|
B|--8--13--8--5--3----8--13--8--8--8--|
G|--9--14--9--6--4----9--14--9--9--9--|
D|------------------------------------|
A|------------------------------------|
E|------------------------------------|


This is the Start of the chorus, "Marathon, how long..."
E|-----0--0--------0--0-----0--0--------0--0------0---0-----------0---0------0--0--------0--0--|
B|-----9--9--------9--9-----9--9--------9--9------15--15----------15--15-----5--5--------5--5--|
G|-----8--8--------8--8-----8--8--------8--8------14--14----------14--14-----4--4--------4--4--|x2
D|-----9--9--------9--9-----9--9--------9--9------15--15----------15--15-----5--5--------5--5--|
A|-----0--0--------0--0-----0--0--------0--0------0---0-----------0---0------0--0--------0--0--|
E|--8--8--8--8--8--8--8--8--8--8--8--8--8--8--13--13--13--13--13--13--13--3--3--3--3--3--3--3--|



E|--0---      E|--0---     E|--0--|
B|--12--      B|--15--     B|--5--|
G|--11-- x12  G|--14-- x6  G|--4--| x6
D|--12--      D|--15--     D|--5--|
A|--0---      A|--0---     A|--0--|
E|--8---      E|--13--     E|--3--|



E|--1--     E|--1--3--4--3--  E|--3--|
B|--1-- x6  B|--1--3--4--3--  B|--3--| x12
G|--2--     G|--2--4--5--4--  G|--4--|
D|--3--     D|--3--5--6--5--  D|--5--|
A|--1--     A|--1--3--4--3--  A|--3--|
E|--1--     E|--1--3--4--3--  E|--3--|


The chorus starts up again.
E|-----0--0--------0--0-----0--0--------0--0------0---0-----------0---0------0--0--------0--0--|
B|-----9--9--------9--9-----9--9--------9--9------15--15----------15--15-----5--5--------5--5--|
G|-----8--8--------8--8-----8--8--------8--8------14--14----------14--14-----4--4--------4--4--|x2
D|-----9--9--------9--9-----9--9--------9--9------15--15----------15--15-----5--5--------5--5--|
A|-----0--0--------0--0-----0--0--------0--0------0---0-----------0---0------0--0--------0--0--|
E|--8--8--8--8--8--8--8--8--8--8--8--8--8--8--13--13--13--13--13--13--13--3--3--3--3--3--3--3--|



E|--0---      E|--0---     E|--0--|
B|--12--      B|--15--     B|--5--|
G|--11-- x12  G|--14-- x6  G|--4--| x6  Played twice.
D|--12--      D|--15--     D|--5--|
A|--0---      A|--0---     A|--0--|
E|--8---      E|--13--     E|--3--|
Tap to rate this tab
 
# A B C D E F G H I J K L M N O P Q R S T U V W X Y Z