Song name
# A B C D E F G H I J K L M N O P Q R S T U V W X Y Z

Terapia - Kesken Kaiken tab

TERAPIA - Kesken Kaiken


Intro: D5


Verse I

D5                          Bb5
Herääminen kesken kaiken unikuvista todellisuuteen,
C5                                 A5
uskallanko silmäni avata viitsinkö nähdä ollenkaan?
D5                            Bb5
Kaikki sanoo anna mennä pistä silmät kiinni ja lyö,
   C5                                        A5
ne sanoo ettei totuutta kannata etsiä, mutta minua

jo pelottaa tämä yö.


Chorus x 2

   D5                 Bb5
En jaksa enää, Jumala oletko siellä?
       C5                 A5
Haluan elämää uutta tällä vajoavalla tiellä


Verse II

D5                             Bb5
Piinavat muistot häpeää laulaa valehdellut sanat kuristaa,
C5                                 A5
missä on vika joko kuollut oon kun sydän on aivan tunnoton?
D5                                      Bb5
Oikein ja väärin, väärin ja oikein edes sitä en tajua enää.
C5                                              A5
Kaikkea on liikaa ja kuitenkaan en mitään liian ylpeä olen edes ymmärtämään


Chorus x 3


Solo I

e|----------------------------------------------------|
H|----------------------------------------------------|
G|------------7----7-7--5h7p5---5---0---------------0-|
D|--7-10-7-10---10------------7---7-----3---3-5-5-3---|
A|----------------------------------------5-----------|
E|----------------------------------------------------|

e|-------------------------------------------------------------------|
H|----------------------------------------------8----8-8/10-10-10-10-|
G|-----------7----7-9b-9b-7h9p7-7h9p7-7-10-7-10---10-----------------|
D|-7-10-7-10---10----------------------------------------------------|
A|-------------------------------------------------------------------|
E|-------------------------------------------------------------------|

e|------------------------------------------------------------------------|
H|-10\8-8-8-8-8\6-6-6-6-6\3-3-3-3-1-3-3-1-3-------------------------------|
G|-------------------------------------------5-7p5---5--------------------|
D|-------------------------------------------------7---7-5-5-5------------|
A|-------------------------------------------------------------8-5-8-5---5|
E|---------------------------------------------------------------------8--|

e|----------------------------|
H|----------------------------|
G|----------------------------|
D|----------------------------|
A|------5---5-8-5------5---5--|
E|-8--8---8-------8--8---8----|

During solo I:

D5  C5  G5    D5  C5  G5


Solo II (listen to get the timing correct)

e|----1...-3...-6...-10...-13...-15...-18..-22..|
H|3...------------------------------------------|
G|----------------------------------------------|
D|----------------------------------------------|
A|----------------------------------------------|
E|----------------------------------------------|

During solo II:

D|-00...33...55..---------|
A|---------------33334444-|


Chorus x 2


Ends on D5

[ http://www.terapia.fi/index.php ]
Tap to rate this tab
# A B C D E F G H I J K L M N O P Q R S T U V W X Y Z