Tesla Boy - Dark Street tab

Artist: Tesla Boy
Title: Dark Street
Tabbed by: Pasha Comix


Intro: Bass

E ---------------------------------------------------------------------------|
B ---------------------------------------------------------------------------|
G ---------------------------------------------------------------------------|
D ---------------------------------------------------------------------------|
A ---------------------------------------------------------------------------|
E -5--3-5-5-8-8--5-8-10-10--1--0-1-1-3-3--3-3--3-3-3-3-----------------------|

Piano part

E ----12-12-13-10-----10----10-12-8-----8----8-10----------------------------|
B -10--------------10----10----------10---10------12--10-12--12-13-10--------|
G ---------------------------------------------------------------------------|
D ---------------------------------------------------------------------------|
A ---------------------------------------------------------------------------|
E ---------------------------------------------------------------------------|

Bridge

E ------13-11-10-8-6-8~-----13-11-10-8-------13-11-10-8-6-8~---11-13-15~-----|
B -13~-------------------13------------6-8~----------------------------------|
G ---------------------------------------------------------------------------|
D ---------------------------------------------------------------------------|
A ---------------------------------------------------------------------------|
E ---------------------------------------------------------------------------|

http://www.teslaboy.com/
Tap to rate this tab
 
# A B C D E F G H I J K L M N O P Q R S T U V W X Y Z