Song name
# A B C D E F G H I J K L M N O P Q R S T U V W X Y Z

Tesla - Changes tab

 e]----------------------------------------------------------------|
 B]----10-10-9-9-10-10-9-9-10-10-9-9-10-10-9-9---------------------|
 G]-----9-9--9-9--9-9--9-9--9-9--9-9--9-9--9-9---------------------| 
 D]----------------------------------------------------------------|
 A]----------------------------------------------------------------|
 E]----------------------------------------------------------------|


 e]----------------------------------------------------------------|
 B]----8-8--7-7--8-8--7-7--8-8--7-7--8-8--7-7----------------------|
 G]----7-7--7-7--7-7--7-7--7-7--7-7--7-7--7-7----------------------| 
 D]----------------------------------------------------------------|
 A]----------------------------------------------------------------|
 E]----------------------------------------------------------------|



then repeat over and over til you want to stop
Tap to rate this tab
 
# A B C D E F G H I J K L M N O P Q R S T U V W X Y Z