Song name
# A B C D E F G H I J K L M N O P Q R S T U V W X Y Z

Tesla - Love Song tab

I couldn't find a nice tab of this, so I just did it myself.

E|-------------------------------------14p12p10--|
B|--8--8p7p5--7\3--3--3--------------------------|
G|-----------------------------------------------|
D|--0---------0----------------------------------|
A|-----------------------------------------------|
E|-----------------------------------------------|

E|--2----3----2h3p2p0--------------------------2--------------|
B|-----------------------2--3--5------3-----------3--0--2--3--|
G|---------------------------------------4--------------------|
D|--0---------------------------------------4-----------------|
A|-----------------------0------------2-----------------------|
E|---------------------------------------------------3--------|

E|--5------7--5h7p5----0----2--3----------------2--------------|
B|--7------------------2----3--5----3--------------3--0--2--3--|
G|----------------------------------------4--------------------|  x2
D|--0----------------------------------------4-----------------|
A|---------------------0------------2--------------------------|
E|----------------------------------------------------3--------|

E|--2-------3--2h3p2p0-------------------------------------------------------|
B|----------------------2--3--5--3--2--5--3--3-----3-----2--2-----2-----3--3-|
G|----------------------------------------------0-----0--------2-----2-------|
D|--0------------------------------------------------------------------------|
A|----------------------0--------2--0--------------------0-------------------|
E|-------------------------------------4--3-----------------------------2----|

E|--------------------------------------------------------------------|
B|-----3-----3--3-----3-----0--2--3-----2--3--3/5--3--2h3p2-----2--3--|
G|--2-----2--------2-----2-----------2-----------------------2--------|
D|--------------------------------------------------------------------|
A|--------------------------------------------0-----------------------|
E|-----------2--------------3--------2-----------------------2--------|

E|-------------------------------------|
B|--0--2--3-----2--3--3/5--3--2h3---2--|
G|-----------2----------------------2--|
D|----------------------------------2--|
A|--------------------0-------------0--|
E|--3--------2-------------------------|

E|---------|
B|---------|
G|--4p2p0--|  x a lot lol
D|---------|
A|---------|
E|---------|

E|--------------------------------------------2--3--2h3p2p0-----------|
B|--------------------------------------------3--------------2--3--5--|
G|--4p2p0----------------4p2p0----------------2-----------------------|
D|---------4p2p0----------------4p2p0---------0-----------------------|
A|----------------4p2p0----------------4p2p0-----------------0--------|
E|--------------------------------------------------------------------|

E|-----------2--------------|
B|--3-----------3--0--2--3--|
G|-----4--------------------|
D|--------4-----------------|
A|--2-----------------------|
E|-----------------3--------|

E|--5--7--5h7p5--0--2--3-----------2--------------|
B|--7------------2--3--5--3-----------3--0--2--3--|
G|---------------------------4--------------------|
D|--0---------------------------4-----------------|  x2
A|---------------0--------2-----------------------|
E|---------------------------------------3--------|

E|--2--3--2h3p2p0--------------------------------------------------2--|
B|-----------------2--3--5--3--2--5--3--3-----3-----2--2-----2-----3--|
G|-----------------------------------------0-----0--------2-----2--2--|
D|--0--------------------------------------------------------------0--|
A|-----------------0--------2--0--------------------0-----------------|
E|--------------------------------4--3--------------------------------|

E|--3--10-----|
B|--5--10-----|
G|------------|  slide up to the 10s
D|------------|
A|------------|
E|------------|

Hope u like:)
Tap to rate this tab
# A B C D E F G H I J K L M N O P Q R S T U V W X Y Z