Song name
# A B C D E F G H I J K L M N O P Q R S T U V W X Y Z

Testament - Together As One tab

Author/Artist: Testament
Title: Together as one
Album: Demonic
Transcribed by: Nikhil Nair
Email: coolguitarist@hotmail.com

Legend:

... = palm mute
~   = let ring
v   = vibrato
p   = pull
h   = hammer on
<>  = artificial harmonic


TOGETHER AS ONE from the album DEMONIC
--------------------------------------
Tuning: drop 6th to D

intro
-|-----------------|-------------|-------------|-------------|----------------
-|-----------------|-------------|-------------|-------------|----------------
-|-----------------|-------------|-------------|*-----------*|----------------
-|-----------------|-------------|-------------|*-----------*|-x4-------------
-|-5--7--8--10--11-|-------------|-------------|-------------|----------------
-|-5--7--8--10--11-|-0-0-0-0-0-0-|-1-0-0-0-0-0-|-3-0-0-1-0-0-|----------------
                     . . . . . .   . . . . . .   . . . . . .                                        

-|------------------|---------------------------|-------------|---------------
-|------------------|---------------------------|-------------|---------------
-|------------------|---------------------------|-------------|---------------
-|------------------|-------------7\5-------7\5-|-------------|---------------
-|---------------5\-|-------------7\5-------7\5-|-----------5-|---------------
-|-3-0-0-0-0-0-0-5\-|-0-0-0-0-0-0-----0-0-0-----|-0-0-0-000-5-|---------------
   . . . . . . .      . . . . . .     . . .       . . . ...                                                                

-|-----------------------|---------------|------------------------------------
-|-----------------------|---------------|------------------------------------
-|-----------------------|*-------------*|------------------------------------
-|-------------7\5-------|*-------------*|------------------------------------
-|-------------7\5-------|---------------|------------------------------------
-|-0-0-0-0-0-0-----0-0-0-|-3-2-1-0-0-0-0-|------------------------------------
   . . . . . .     . . .   . . . . . . .
Tap to rate this tab
 
# A B C D E F G H I J K L M N O P Q R S T U V W X Y Z