Song name
# A B C D E F G H I J K L M N O P Q R S T U V W X Y Z

Tetra Splendour - Cfcs chords

Highlighted       Show chord diagrams
http://en.wikipedia.org/wiki/People_in_Planes#The_.22Tetra_Splendour.22_years:_2000-2005

TETRA SPLENDOR
C.F.C's

RIFF 1     RIFF 2 (note: The bass line plays Am y E, but you can play just the Am)

E---7---|--7-7---5--7-7--5-7/8-7-5----|
B---5---|--5-5---5--5-5--5-5---5-5----|
G---5---|--5-5---5--5-5--5-5---5-5----|
D---5---|-----------------------------|
A---0---|--0--0-----0-----------------| 
E-------|------0---------0------------|

CHORDS: 
Am7:   575555
Dm7:   557565
F9:    033210
E7*:   079797
C/G:   332010
E7:    020100
Em/G:  3220XX
D#7/E: 078686


INTRO:  RIFF 1    RIF 2 X8  

Am7                           RIFF 2
  You take my guilt home with you
RIFF 2                         RIFF 2    
Put it in your pocket with your glue
  Dm7                         RIFF 2
Subject to pest control, but it's always in your head
 RIFF 2
And it's always in your head
Dm7                                 RIFF 2
These days are sickness are filled,	But it's aaaaalways
Am		F9
With yourself   At home
Dm7		E7*         
On the Christmas tree
Am		F9
And we see	How it feels
Dm7                 
When we breath it free and easy
Am                 F            C/G    
All I wanna do is hear you talk dirty	
Am                 F            C/G    	 E7
All I wanna do is hear you talk dirty    To me

Em/G   Em   RIFF2

Daytime, the mainline, I'm pleased for you
Your dragon's catching up, it's true
These days are sickness filled, but it's always in your head,
it's always in your head
And it's always in your head	 And it's aaaaalways
With yourself	At home
On the Christmas tree
And we see	How it feels
When we breath it free and easy
All I wanna do is hear you talk dirty
All I wanna do is hear you talk dirty   To me


(NOTE: this part is arpeggio. The notes between parentheses are just notes, not chords. 
At the end, Ive put a little tab of this part, called RIFF 3)

(RIFF 3)
Am     (B C)  E7    (F#  G#)  F    (G G#) C     C
All you ever  wanted was for  me to be unhappy
Am     (B C)  E7    (F#  G#)  F    (G G#) C     C	 E7     
your emotion sickness, just gives me a raging headaches

D#7/E*    E7*

C/G			E7
Raging headache,	Raging headache
C/G			E7
Don't forsake my  	raging headache
C/G			E7
Blessed in case, 	just in case
Am			G
All our strains and    raging headache

C/G			E7
C/G			E7
C/G			E7
Am			G		E7

E----------------------------------|
B----9----9----12---12----15---15--|
G--12--12----15---15----18---18----|
D----------------------------------|
A----------------------------------| 
E----------------------------------|

(slow piano)
Am     E7     F        C
Am     E7     F        C   E7



RIFF 3
E--------------------------------------------------|
B-----1-------------------------------------1------|
G-----2-----------1------------2------------0------|
D---2--2----------0------------3----------2--2-----|
A-0------2-3----2--2---------3--3-------3-------3--| 
E-------------0------2-4---1------3-4--------------|
  Am    (B C) E7   (F# G#) F     (G G#) C	C
Tap to rate this tab
# A B C D E F G H I J K L M N O P Q R S T U V W X Y Z