Song name
# A B C D E F G H I J K L M N O P Q R S T U V W X Y Z

That Dog - Never Say Never tab

Artist: That Dog
Album: Retreat from the Sun
Song: Never say Never

Intro:

      F5     C5 D5 A5 C5
E---------------------------
B---------------------------
G------------5--7-----555---
D--3-333333--5--7--7--555---
A--3-333333--3--5--7--333---
E--1-111111--------5--------

Durring the Verse:

E--8--------8-
B-----8-------
G-------------
D-------------
A-------------
E------------- 

Chorus:

     F5      C5 D5 A5 C5
E---------------------------
B---------------------------
G------------5--7-----555---
D--3-333333--5--7--7--555---
A--3-333333--3--5--7--333---
E--1-111111--------5--------

Moog Synth Fill Part:

E-------------------------------------------
B-----8----6---6----5---5----3----5---------
G---5----5----5---5---5----5----5----5------
D-------------------------------------------
A-------------------------------------------
E-------------------------------------------

Solo:

E-----------------------3-----------------------3--
B-1-3-5-3-11-1-3-55-3-1---1-3-55-3-11-1-3-5-3-1----
G--------------------------------------------------
D--------------------------------------------------
A--------------------------------------------------
E--------------------------------------------------

E------------------------3-------------------------
B-1-3-55-3-11--1-3-5-3-1---1-3-5-3-11-1-3-5-3-11---
G--------------------------------------------------
D--------------------------------------------------
A--------------------------------------------------
E--------------------------------------------------
Tap to rate this tab
 
# A B C D E F G H I J K L M N O P Q R S T U V W X Y Z