Song name
# A B C D E F G H I J K L M N O P Q R S T U V W X Y Z

The 1975 - Chocolate tab

-------------------------------------------------------------------------------
                             C H O C O L A T E -- T H E   1 9 7 5
-------------------------------------------------------------------------------


http://the1975.com


TABBED BY BETH FISHER


CAPO 7

// I N T R O //

e|---------------------------------------------------------------------------|
B|---------------------------------------------------------------------------|
G|----2-2---1-1---4-4---1-1--------2-2---1-1---4-4---1-1---------------------|
D|----2-2---2-2---4-4---2-2--------2-2---2-2---4-4---2-2---------------------| repeat
A|----------2-2---2-2---2-2--------------2-2---2-2---2-2---------------------|
E|---------------------------------------------------------------------------|

or

e|---------------------------------------------------------------------------|
B|---------------------------------------------------------------------------|
G|----2-1-----------1---------1---------1------------------------------------|
D|--------4-2-4-4-4---2-4-4-4---2-4-4-4---2----------------------------------| repeat
A|---------------------------------------------------------------------------|
E|---------------------------------------------------------------------------|

or if you're feeling adventurous

e|---------------------------------------------------------------------------|
B|---------------------------------------------------------------------------|
G|----2-1-1-1-1-1-1-1--1-1-1-1-1--1-1-1-1-1----------------------------------|
D|----2-2-4-2-4-4-4-2--2-4-4-4-2--2-4-4-4-2----------------------------------| repeat
A|----2-2-2-2-2-2-2-2--2-2-2-2-2--2-2-2-2-2----------------------------------|
E|---------------------------------------------------------------------------|



// V E R S E - C H O R U S //

e|---------------------------------------------------------------------------|
B|---------------------------------------------------------------------------|
G|----2-2---1-1---4-4---1-1--------2-2---1-1---4-4---1-1---------------------|
D|----2-2---2-2---4-4---2-2--------2-2---2-2---4-4---2-2---------------------| repeat
A|----------2-2---2-2---2-2--------------2-2---2-2---2-2---------------------|
E|---------------------------------------------------------------------------|


THAT'S PRETTY MUCH IT
Tap to rate this tab
 
# A B C D E F G H I J K L M N O P Q R S T U V W X Y Z