Song name
# A B C D E F G H I J K L M N O P Q R S T U V W X Y Z

The 1975 - Pressure tab

This tab is the basic structure of the song, it is not exact with all the 
background guitar riffs but you can definitely play along without a second 
thought. Hope you like it.

Intro:
e-------------------------------------------------|
B-------------------------------------------------|
G----------12-------------------------------------|
D---12h14------12-12-12-10------------------------| 
A-------------------------------------------------|
E-------------------------------------------------|
Repeat several times, and then the last time do it like this:
e-------------------------------------------------|
B-------------------------------------------------|
G----------12-------------------------------------|
D---12h14------12-12-12-10------------------------| 
A--------------------------12---------------------|
E-------------------------------------------------|


Riff(2nd guitar):
e-------------------------------------------------|
B-------------------------------------------------|
G---12h14--12--9----7-----------------------------|
D----------------12---10--------------------------| 
A-------------------------------------------------|
E-------------------------------------------------|  

Verse 1:
You've seen so many faces that I've never seen before.
I left an un-rewarding message telling you to come on
Over dramatic, automatically assume I'll stay the same.
e-------------------------------------------------|
B-------------------------------------------------|
G---12h14--12--9----7-----------------------------|
D----------------12---10--------------------------| 
A-------------------------------------------------|
E-------------------------------------------------|

Chorus:
e-------------------------------------------------|
B-------------------------------------------------|
G----------12-------------------------------------|
D---12h14------12-12-12-10------------------------| 
A-------------------------------------------------|
E-------------------------------------------------| 
Repeat several times, and then the last time do it like this:
e-------------------------------------------------|
B-------------------------------------------------|
G----------12-------------------------------------|
D---12h14------12-12-12-10------------------------| 
A--------------------------12---------------------|
E-------------------------------------------------|
 

Verse 2:
Well I stay tuned, listen to the news and try to fall asleep at night.
Because I'm living in a house with just three walls,
So I'm always getting recognized.
e-------------------------------------------------|
B-------------------------------------------------|
G---12h14--12--9----7-----------------------------|
D----------------12---10--------------------------| 
A-------------------------------------------------|
E-------------------------------------------------|

Chorus:
e-------------------------------------------------|
B-------------------------------------------------|
G----------12-------------------------------------|
D---12h14------12-12-12-10------------------------| 
A-------------------------------------------------|
E-------------------------------------------------|
Repeat several times, and then the last time do it like this:
e-------------------------------------------------|
B-------------------------------------------------|
G----------12-------------------------------------|
D---12h14------12-12-12-10------------------------| 
A--------------------------12---------------------|
E-------------------------------------------------|

Break

(Change in pressure...):
e-------------------------------------------------|
B---15h17--15--13--------15h17--15--13------------|
G-----------------12------------------------------|
D-------------------------------------------------| 
A-------------------------------------------------|
E-------------------------------------------------|
Repeat all the way until the end and then the last time play like this:
e-------------------------------------------------|
B---15h17--15--13--------15h17--15--13------------|
G-----------------12--------------------14--------|
D-------------------------------------------------| 
A-------------------------------------------------|
E-------------------------------------------------|
Tap to rate this tab
# A B C D E F G H I J K L M N O P Q R S T U V W X Y Z