Song name
# A B C D E F G H I J K L M N O P Q R S T U V W X Y Z

The 3rd And The Mortal - Sorrow tab

             Band: The 3rd And The Mortal
            Title: Sorrow
       Instrument: Acoustic Nylon Guitar
   Time Signature: 6/4
             Temp: 110
        Tabbed by: Da Mortum

     Q    Q    Q    H       Q       Q    Q    Q    Q.     E  Q       Q    Q    Q    H    
   Q
E||-------0----------------------|--------------------------------|-------0-----------------------|
B||-----------------0------------|-------1---------0--------------|------------6----5-------------|
G||------------5-----------------|--4------------------------2----|--7-----------------------2----|
D||-------------------------2----|------------2-----------5-------|--0----------------------------|
A||--0---------------------------|--0-----------------------------|-----------------0-------------|
E||------------------------------|-----------------3--------------|-------------------------------|


                        |--3--|
  Q    Q    Q    Q.     S  S  S Q       Q.     E  E  E  H.          Q    Q    Q    Q.    
E  Q
-------------------------------------|---------0-----------------|--------------------------------|
--0--------------3------1h-3p-1-0----|------------0--------------|-------1---------0--------------|
------------2------------------------|--2------------2--1--------|--4------------------------2----|
-------5---------0-------------------|---------------------------|------------2-----------5-------|
-------------------------------------|---------------------------|--0-----------------------------|
--3----------------------------------|--0------------------------|-----------------3--------------|


                                                       |--3--|
  Q    Q    Q    H       Q       Q.     E  Q    Q.     S  S  S Q       Q    E  E  E  E  H.
-------0-----------------5----|--7---------3----5------3h-5p-3------|-------5-----3----------------|
-----------------5------------|---------3----------------------6----|--5-------3-----3--5----------|
--7---------7-----------------|-------------------------------------|------------------------------|
--0---------------------------|-----------------0-------------------|------------------------------|
-----------------0------------|-------------------------------------|--0----------------0----------|
------------------------------|--3----------------------------------|----------3-------------------|


                                                                                      |--3--|
  Q    Q    Q    Q.    E  Q       Q    Q    Q    H      Q       Q    Q    Q    Q.     S  
 S Q
-------------------------------|-------0---------------------|-------------------------------------|
-------1---------0-------------|------------6----5-----------|--0--------------3------1h-3p-1-0----|
--4-----------------------2----|--7---------------------2----|------------2------------------------|
------------2----------5-------|--0--------------------------|-------5---------0-------------------|
--0----------------------------|-----------------0-----------|-------------------------------------|
-----------------3-------------|-----------------------------|--3----------------------------------|


                                    ^        ^    ^        ^       ^        ^    ^
  Q.     E  E  E  H.                H        Q    H        Q       H        Q    H       
Q
---------0---------------------||-------------------------------|------------------------------|
------------0------------------||-------------------------------|------------------------------|
--2------------2--1------------||*--5--------9----9--------7----|--5--------7----4-------------|
-------------------------------||*--7--------7----7--------7----|--3--------3----5-------------|
-------------------------------||---0-------------8--------8----|--5--------5----5-------------|
--0----------------------------||-------------------------------|-------------------------0----|

                                 _____________________________   ________________________________
  ^        ^     ^              1. ^        ^    ^              2. ^        ^    ^      ^
  H        Q     H         Q       H        Q    H.                H        Q    Q.     E E  E
--------------------------------|------------------------------||--------------------------------|
--------------------------10----|--8--------6------------------||--8--------6--------------------|
--5--------9----10--------------|--7--------7----9------------*||--7--------7----9------9--7-----|
--7--------7-----7--------------|--5--------5----7------------*||--5--------5----7------7-----7--|
--0--------------8--------------|--5--------5----0-------------||--5--------5----0------0--------|
--------------------------------|------------------------------||--------------------------------|

                                         ______________________________   _________________________
     ^      ^         ^                1. ^           ^      ^          2. ^
     Q.     E   Q     Q     E  E  E  E    H      Q    Q.     E  E  E       H      Q    Q 
 Q   Q
|--------------------------12-10-------|-------------------------------||---------7----------------|
|--------------------10----------10----|-------------------------------||-------------10-----------|
|*--10-----10--12-----9-------------10-|--9-----------9------9--7-----*||--9---------------9---8---|
|*---8------8---------0----------------|--7-----------7------7-----7--*||--7-----------------------|
|---10-----10--------------------------|--0------0----0------0---------||--0-----------------------|
|--------------------------------------|-------------------------------||--------------------------|


                                                                                      |--3--|
  Q    Q    Q    Q.    E  Q       Q    Q    Q    H      Q       Q.     E  Q    Q.     S  
 S Q
-------------------------------|-------0----------------5----|--7---------3----5------3h-5p-3------|
-------1---------0-------------|-----------------5-----------|---------3----------------------6----|
--4-----------------------2----|--7---------7----------------|-------------------------------------|
------------2----------5-------|--0--------------------------|-----------------0-------------------|
--0----------------------------|-----------------0-----------|-------------------------------------|
-----------------3-------------|-----------------------------|--3----------------------------------|


  Q    E  E  E  E  H.
-------5-----3----------------||
--5-------3-----3--5----------||
------------------------------||
------------------------------||
--0----------------0----------||
----------3-------------------||


Duration Legend
---------------
W - whole
H - half
Q - quarter
E - 8th
S - 16th
T - 32nd
X - 64th
. - note dotted
|-n-|  - n-tuplets


Tablature Legend
----------------
h - hammer on
p - pull off
^ - brush up
v - brush down
 ___    ___
1.   ; 2.    - Alternate Endings
Tap to rate this tab
# A B C D E F G H I J K L M N O P Q R S T U V W X Y Z