Song name
# A B C D E F G H I J K L M N O P Q R S T U V W X Y Z

The Absence - Heaven Ablaze tab

#----------------------------------PLEASE NOTE---------------------------------#
#This file is the author's own work and represents their interpretation of the #
#song. You may only use this file for private study, scholarship, or research. #
#------------------------------------------------------------------------------##

On the ablum this song is played in C, I tabbed in in Drop C, If you want to play it in 
just move the notes down 2 frets.

Gtr I (C G C F A D) - 'Untitled'

 4/4
  Gtr I
  PM----|       PM   PM   PM   PM             PM----|       PM   PM   PM
  E E E E  E  E E  E E  E E  E E  E  E  E   E E E E E  E  E E  E E  E E  E
|-------------------------------------------------------------------------------|
|-------------------------------------------------------------------------------|
|-------------------------------------------------------------------------------|
|-------------------------------------------------------------15---13---12------|
|---------12-10---15---13---12---13h15p13-12---------12-10----------------------|
|-0-0-0-0-------0----0----0----0--------------0-0-0-0-------0----0----0---------|


  PM----|       PM   PM   PM   PM             PM--|    PM   PM   PM--|    PM   PM
  E E E E  E  E E  E E  E E  E E  E  E  E   E E E E  E E  E E  E E E E  E E  E E  E
|---------------------------------------------------------------------------------------|
|---------------------------------------------------------------------------------------|
|---------------------------------------------------------------------------------------|
|--------------------------------------------------------------------------------12-----|
|---------12-10---15---13---12---13h15p13-12-------15---13---12-------15---13-----------|
|-0-0-0-0-------0----0----0----0--------------0-0-0----0----0----0-0-0----0----0--------|


 4/4
  Gtr I
  PM----|       PM   PM   PM   PM             PM----|       PM   PM   PM
  E E E E  E  E E  E E  E E  E E  E  E  E   E E E E E  E  E E  E E  E E  E
|-------------------------------------------------------------------------------|
|-------------------------------------------------------------------------------|
|-------------------------------------------------------------------------------|
|-------------------------------------------------------------15---13---12------|
|---------12-10---15---13---12---13h15p13-12---------12-10----------------------|
|-0-0-0-0-------0----0----0----0--------------0-0-0-0-------0----0----0---------|


  PM----|       PM   PM   PM   PM             PM--|    PM   PM   PM--|    PM
  E E E E  E  E E  E E  E E  E E  E  E  E   E E E E  E E  E E  E E E E  E E  E
|-----------------------------------------------------------------------------------|
|-----------------------------------------------------------------------------------|
|-----------------------------------------------------------------------------------|
|-----------------------------------------------------------------------------------|
|---------12-10---15---13---12---13h15p13-12-------15---13---12-------15---13-------|
|-0-0-0-0-------0----0----0----0--------------0-0-0----0----0----0-0-0----0---------|


Duration Legend
---------------
W - whole; H - half; Q - quarter; E - 8th; S - 16th; T - 32nd; X - 64th; a - acciaccatura
+ - note tied to previous; . - note dotted; .. - note double dotted
Uncapitalized letters represent notes that are staccato (1/2 duration)
Irregular groupings are notated above the duration line
Duration letters will always appear directly above the note/fret number it represents the
duration for.  Duration letters with no fret number below them represent rests.  Multi-
bar rests are notated in the form Wxn, where n is the number of bars to rest for.  Low
melody durations appear below the staff

Tablature Legend
----------------
 h   - hammer-on
 p   - pull-off
 b   - bend
 pb  - pre-bend
 r   - bend release (if no number after the r, then release immediately)
 /  - slide into or out of (from/to "nowhere")
 s   - legato slide
 S   - shift slide
  - natural harmonic
[n]  - artificial harmonic
n(n) - tapped harmonic
 ~   - vibrato
 tr  - trill
 T   - tap
 TP  - trem. picking
 PM  - palm muting
n/  - tremolo bar dip; n = amount to dip
 n  - tremolo bar down
 n/  - tremolo bar up
/n  - tremolo bar inverted dip
 =   - hold bend; also acts as connecting device for hammers/pulls
 <>  - volume swell (louder/softer)
 x   - on rhythm slash represents muted slash
 o   - on rhythm slash represents single note slash

Misc Legend
-----------
 |  - bar
||  - double bar
||o - repeat start
o|| - repeat end
*|  - double bar (ending)
 :  - bar (freetime)
 $  - Segno
 &  - Coda
Tempo markers -  = BPM(8/16=s8/s16), where s8 = swing 8ths, s16 = swing 16ths


***************************************************************************************
* Generated using Power Tab Editor by Brad Larsen - http://powertab.guitarnetwork.org *
***************************************************************************************
Tap to rate this tab
# A B C D E F G H I J K L M N O P Q R S T U V W X Y Z