Song name
# A B C D E F G H I J K L M N O P Q R S T U V W X Y Z

The Agonist - Rise And Fall tab

D-----------------------------------------------------------------------------|
A-----------------------------------------------------------------------------|
F-----10------9---------10---9------9--10-------------------------------------|
C------0------0----------0---0------0---0-------------------------------------|
G-----------------------------------------------------------------------------|
C-0000---0000---00000000-------0000-------000000----00-00----000000----00-00--|
  ****   ****   ********       ****       ******    ** **    ******    ** **

D-----------------------------------------------------------------------------|
A-----------------------------------------------------------------------------|
F-----10------9---------10---9------9--10-------------------------------------|
C------0------0----------0---0------0---0-------------------------------------|
G-----------------------------------------------------------------------------|
C-0000---0000---00000000-------0000-------000000----00-00----000000----00-00--|
  ****   ****   ********       ****       ******    ** **    ******    ** **

D-----------------------------------------------------------------------------|
A-----------------------------------------------------------------------------|
F-----10------9---------10---9------9--10-------------------------------------|
C------0------0----------0---0------0---0-------------------------------------|
G-----------------------------------------------------------------------------|
C-0000---0000---00000000-------0000-------000000----00-00----000000----00-00--|
  ****   ****   ********       ****       ******    ** **    ******    ** **


D------------------------------------------------------------------|
A------------------------------------------------------------------|
F-----10-------9----------10--9------9---10------7--9----5---------|
C------0-------0----------0---0------0----0------0--0----0---------|
G------------------------------------------------------------------|
C-0000----0000---00000000-------0000--------0000-------0-----------|

An awesome song…I may post the rest later…I dunno know if itz 100% but it sounds 
to the song for the appropriate rhythm…enjoi…

p.s. this is my first so be gentle…
Tap to rate this tab
# A B C D E F G H I J K L M N O P Q R S T U V W X Y Z