Song name
# A B C D E F G H I J K L M N O P Q R S T U V W X Y Z

The Aliens Of Rock - Invasion 1 tab

Hey, these are the OFFICIAL tabs to The Aliens of Rock, Made By Sean Bialo. (Guitarist 
for The Aliens of Rock) I AM Sean Bialo. Hope You Like it.



  Intro


E--20--20--20--20--20--20--20-20-20-20-----|
B------------------------------------------|
G------------------------------------------|
D------------------------------------------|
A------------------------------------------|
D------------------------------------------|



  Main Riff


E-------------------------------------------|
B-------------------------------------------|
G-------------------------------------------|
D---7-7-7-7-7-7-7-7-6-6-6-6-6-6-6-6---------|
A---7-7-7-7-7-7-7-7-6-6-6-6-6-6-6-6---------|
D---7-7-7-7-7-7-7-7-6-6-6-6-6-6-6-6---------|


E--------------------------------------------|
B--------------------------------------------|
G--------------------------------------------|
D---7-7-7-7-7-7-7-7-9-9-9-9-9-9-9-9----------|
A---7-7-7-7-7-7-7-7-9-9-9-9-9-9-9-9----------|
D---7-7-7-7-7-7-7-7-9-9-9-9-9-9-9-9----------|
Tap to rate this tab
# A B C D E F G H I J K L M N O P Q R S T U V W X Y Z