Song name
# A B C D E F G H I J K L M N O P Q R S T U V W X Y Z

The Allman Brothers Band - Please Call Home tab

-------------------------------------------------------------------------------
			     Please Call Home - The Allman Brothers Band
-------------------------------------------------------------------------------
Tabbed by: mjy2821
Email: yash3434@gmail.com

Tabbed below are the licks played by Duane Allman in "Please Call Home" from the album 
South"

Be sure to listen to the song while looking at the tab

The song's format is essentially Greg and Duane alternating between vocals and guitar. 
is Duane's part...

e|-------------------------------------------------------15-----------------|
B|------------------------------------------------13-15b17--15b17-----------|
G|--pb8r7p5-7b9------------7b8-pb8r7p5\-------/14---------------------------|
D|---------------------7-5--------------------------------------------------|
A|--------------------------------------------------------------------------|
E|--------------------------------------------------------------------------|

e|-----------------------------3------11-8-11b13-10b12---10b11-8-------------|
B|------------3b4r3------6-4-6---4-------------------------------10-8--------|
G|--2-5---2-5----------------------5-----------------------------------------|
D|---------------------------------------------------------------------------|
A|---------------------------------------------------------------------------|
E|---------------------------------------------------------------------------|

e|---------------------------------------------------------------------------|
B|--------------------------------------6b7----------------------------------|
G|-pb8r7p5-------------7b8-7b8------5-------7b8-5---5------------------------|
D|-------------7-5-7-5----------------7-----------7---7-5--------------------|
A|---------------------------------------------------------------------------|
E|---------------------------------------------------------------------------|

e|--11b13-10b12-8-------------------------------11-8-11b13-11b14r11p8----8----------|
B|----------------10-8-10-8-8--10b13-10p8-----8-----------------------11---11b13r11-|
G|----------------------------------------------------------------------------------|
D|----------------------------------------------------------------------------------|
A|----------------------------------------------------------------------------------|
E|----------------------------------------------------------------------------------|

e|----------------------------------------------------------------5------------------|
B|--11-8--pb13r11--pb11.5r11p8-------------------------------------------------------|
G|-----------------------------------5-5h7p7------------------------7b8r7p5----------|
D|-------------------------------5-7---------7-5-5h7------5h7p5-------------7-5-5h7--|
A|----------------------------/7-----------------------------------------------------|
E|-----------------------------------------------------------------------------------|

e|--------------------------------------------------------------------------|
B|--------------------------------------------------------------------------|
G|-------------5-7-5---5h7----pb8r7p5-------------7-8-pb8r7p5---5-5---------|
D|--5h7p5------------7----------------7-5-------5-------------7-------------|
A|----------------------------------------7---------------------------------|
E|--------------------------------------------------------------------------|

e|--/17----15-17------------------------------------------------------------|
B|------17-------15b17r15p13------------13-12-pb13r12b13--------------------|
G|-----------------------------------12-----------------------pb8r7p5h7b8---|
D|-----------------------------12/14----------------------------------------|
A|--------------------------------------------------------------------------|
E|--------------------------------------------------------------------------|

e|-/8-10-8--pb13r11-8-------------15p11b11.5--------11-13-11b13r11b12--------|
B|--------------------11-11b13---------------13--13--------------------------|
G|---------------------------------------------------------------------------|
D|---------------------------------------------------------------------------|
A|---------------------------------------------------------------------------|
E|---------------------------------------------------------------------------|

e|-5----------------------------------------------pb8r6------------------------------|
B|-5---------------5---5-----------------6b8------------6b8r6p4------11--pb13r11b11--|
G|---pb8r7p5---5-7---7---7b9-----pb8r7p5------------------------5--------------------|
D|-----------7-----------------------------------------------------------------------|
A|-----------------------------------------------------------------------------------|
E|-----------------------------------------------------------------------------------|

e|--------------15b17r15----------5-----------------------------------------|
B|----13--16--13--------13--------------------------------------------------|
G|-/14--14--14---------------------7b9-pb8r7p5---5-7b9------7b8r75-----5-5-5|
D|--------------------------------------------7-------------------5-7-------|
A|--------------------------------------------------------------------------|
E|--------------------------------------------------------------------------|

e|------8------------------8--------11-8-----------------------------------|
B|----8---8-11b13--------8---11p8-8-----11p8-11b13-11b13--8-6-8------------|
G|-/9-----------------8h9---------------------------------------8b9-5------|
D|-------------------------------------------------------------------------|
A|-------------------------------------------------------------------------|
E|-------------------------------------------------------------------------|

e|-----------------------------------------------------------------------|
B|-6-4-6-pb8r6p4b5----------------------------------------13-15-13-------|
G|----------------------5-7---7b9r7b9--7b10-7-5h7-----/14----------------|
D|--------------------------7---------------------7----------------------|
A|-----------------------------------------------------------------------|
E|-----------------------------------------------------------------------|

e|-----11-13-pb15-13b15----pb15r13p11-13-pb15-13b15--11b12r11-------|
B|-/13--------------------------------------------------------------|
G|------------------------------------------------------------------|
D|------------------(fade out)--------------------------------------|
A|------------------------------------------------------------------|
E|------------------------------------------------------------------|

| /  slide up
| \  slide down
| h  hammer-on
| p  pull-off
| rx release bend down to x
| pb prebend
| bx bend up to x
===============================================================================
Tap to rate this tab
 
# A B C D E F G H I J K L M N O P Q R S T U V W X Y Z