Song name
# A B C D E F G H I J K L M N O P Q R S T U V W X Y Z

The Amity Affliction - Youngbloods tab

This is my first tab so don't judge.
Any mistakes email me. alison.lea11@yahoo.com.au

Standard Tuning
e|---------------------15~--------|------------------------------------|
B|-----12------13-----------------|---12--13---12------13--------------|
G|--------------------------------|---------------------------14~------|
D|--------------------------------|------------------------------------|
A|--------------------------------|------------------------------------|
E|--------------------------------|------------------------------------|

e|---------------------15~--------|---17---15---12---------------------|
B|-----12------13-----------------|------------------12---13---14--15/|
G|--------------------------------|------------------------------------|
D|--------------------------------|------------------------------------|
A|--------------------------------|------------------------------------|
E|--------------------------------|------------------------------------|
Tap to rate this tab
# A B C D E F G H I J K L M N O P Q R S T U V W X Y Z