Song name
# A B C D E F G H I J K L M N O P Q R S T U V W X Y Z

The Amplifetes - Somebody New tab

One of the easiest songs ever.
First
e|-----------------------------------------------------------------------|
B|-----------------------------------------------------------------------|
G|----------------5-5---2-2---5-5----------------------------------------|
D|---2-2----5-5---5-5---2-2---5-5----5-5---------------------------------|
A|---2-2----5-5---3-3---0-0---3-3----5-5---------------------------------|
E|---0-0----3-3----------------------3-3---------------------------------|


Second
e|-----------------------------------------------------------------------|
B|-----------------------------------------------------------------------|
G|----------------5-5---2-2---5-5----7-7---------------------------------|
D|---2-2----5-5---5-5---2-2---5-5----7-7---------------------------------|
A|---2-2----5-5---3-3---0-0---3-3----5-5---------------------------------|
E|---0-0----3-3----------------------------------------------------------|

Alternate between these then sometimes you hold an E5 (The E-0 A-2 D-2)Chord
Then the bridge



e|----------------------------------------|
B|----------------------------------------|
G|----------------------------------------|
D|--2-------2--------3-------3------------|
A|----2-------2--------3-------3----------|
E|------0-------0--------1-------1--------|

That's it.

http://www.theamplifetes.com/
Tap to rate this tab
# A B C D E F G H I J K L M N O P Q R S T U V W X Y Z