Song name
# A B C D E F G H I J K L M N O P Q R S T U V W X Y Z

The Answering Machine - Oklahoma tab

Band: The Answering Machine
Song: Oklahoma
Album: Another City Another Sorry

Like to buy the album:
http://www.play.com/Music/CD/4-/9257921/Another-City-Another-Story/Product.html




Intro/Verses

e-----------------------------------------|
b--12-12--14-14--12-12-12--14-14-14-14----|
g--13-13--13-13--13-13-13--13-13-13-13----|
d--14-14--14-14--14-14-14--14-14-14-14----|   X2
a-----------------------------------------|
e-----------------------------------------|

e----------------------------|
b-5-5--7-7--5-5-5--7-7-7-7---|
g-6-6--6-6--6-6-6--6-6-6-6---|  X2
d-7-7--7-7--7-7-7--7-7-7-7---|
a----------------------------|
e----------------------------|

Bridge

e-7-5~--4-2~------------|
b-----------------------|

Chorus

e---------------------|
b---------------------|
g-9-9-9-9--6-6-6--4---|
d-9-9-9-9--6-6-6--4---|
a-7-7-7-7--4-4-4--2---|
e---------------------|
Tap to rate this tab
# A B C D E F G H I J K L M N O P Q R S T U V W X Y Z