Song name
# A B C D E F G H I J K L M N O P Q R S T U V W X Y Z

The Antlers - Atrophy chords

Highlighted       Show chord diagrams
-------------------------------------------------------------------------------
			     ATROPHY - The Antlers
-------------------------------------------------------------------------------
Tabbed by: Kyle R.K.
Email: warpig0001@gmail.com

Tuning: Standard

There should only be a few songs from Hospice now without tabs...

Chords used:

D add F#   D add C#   
-2-        -2-
-3-        -3-
-2-        -2-
-4-        -0-
-x-        -4-
-x-        -x-


A:    Bm:   G:   D :  Em:
-0-   -2-   -3-  -2-  -0-
-2-   -3-   -3-  -3-  -0-
-2-   -4-   -0-  -2-  -0-
-2-   -4-   -0-  -0-  -2-
-0-   -2-   -2-  -x-  -2-
-x-   -x-   -3-  -x-  -0-


            Bm                  DaddF#                     G        D  DaddC#
You've been living awhile in the front of my skull, making orders...

            Bm                         DaddF#               G        D DaddC#
You've been writing me rules, shrinking maps, and redrawing borders...



And so on and so forth. In the instrumental bit with the cool piano melody,
the chords are:

Em, D add F#, Bm, A.
Tap to rate this tab
# A B C D E F G H I J K L M N O P Q R S T U V W X Y Z