Song name
# A B C D E F G H I J K L M N O P Q R S T U V W X Y Z

The Aristocrats - Bad Asteroid tab

         E-11     G9         Esus9       G13
e]-------2---------0-------------7--------5-|
B]-------3---------3-4p2p0h2-----7--------5-|
G]-------2---------2-------------9--------7-|
D]-------5---------0-------------9--------7-|
A]-----2-2---------0------------------------|
E]----0-------0h3--3------------------------|



Main Riff

e]---------------------------------------------------|
B]--10h15p10\8\7-------------------------------------|
G]----------------h9--7h12h9h7-----------------------|
D]------------------------------h9--7h12h9h7---------|
A]---------------------------------------------------|
E ]--------------------------------------------------|

e]--------------------------------------------------------------|
B]-----------------------x----x-------x-------------------------|
G]-------------7\4-------x----x-------x------5-----5--7--5------|
D]-------7--5-----------9\7--9\7-----9\7---7----7----------7----|
A]--h9\7--------------------------------------------------------|
E]--------------------------------------------------------------|
Tap to rate this tab
# A B C D E F G H I J K L M N O P Q R S T U V W X Y Z