The Asbestos - Say tab

Guitar 1
 David Donoso

Intro 0:01 - 0:10
X2
E-----------------------------------------------------------------------------|
B--2--2--2--2----0--0--0--0------------------0--0--0--0-----------------------|
G--2--2--2--2----2--2--2--2----2--2--2--2----2--2--2--2-----------------------|
D--0--0--0--0----2--2--2--2----0--0--0--0----2--2--2--2-----------------------|
A--0--0--0--0----0--0--0--0----0--0--0--0----0--0--0--0-----------------------|
E------------------------------2--2--2--2-------------------------------------|


Pre-Verso  0:11 - 0:19
E----------------------------------------------------------------------------|
B--2------0------------------------------------------------------------------|
G--2------2-------2------2---------------------------------------------------|
D--0------2-------0------2---------------------------------------------------|
A--0------0-------0------0---------------------------------------------------|
E----------------------------------------------------------------------------|

Verso  0:20 - 0:28
X2
E-----------------------------------------------------------------------------|
B--2--2--2--2----0--0--0--0---------------------0--0--0--0--------------------|
G--2--2--2--2----2--2--2--2----2--2--2--2----2--2--2--2-----------------------|
D--0--0--0--0----2--2--2--2----0--0--0--0----2--2--2--2-----------------------|
A--0--0--0--0----0--0--0--0----0--0--0--0----0--0--0--0-----------------------|
E------------------------------2--2--2--2-------------------------------------|

Coro 0:29 - 0:47

x2
PM|---------------------------------------------------------------------------|
E-----------------------------------------------------------------------------|
B--------------------3-3-3-3-3-3-3-3----2-2-2-2-2-2-2-2----0-0-0-0-0-0-0-0-0--|
G--------------------2-2-2-2-2-2-2-2----2-2-2-2-2-2-2-2-----------------------|
D--4-4-4-4-4-4-4-4---0-0-0-0-0-0-0-0----2-2-2-2-2-2-2-2----2-2-2-2-2-2-2-2-2--|
A--4-4-4-4-4-4-4-4---0-0-0-0-0-0-0-0----0-0-0-0-0-0-0-0-----------------------|
E--2-2-2-2-2-2-2-2-----------------------------------------4-4-4-4-4-4-4-4-4--|

0:48 - 0:56

E----------------------------------------------------------------------------|
B----------------------------------------------------------------------------|
G--4-4-4---------------------------------------------------------------------|
D--2-2-2----4-4-4----2-2-2-2-2-2-2-2-2-2-2-2-2-2-2---------------------------|
A--2-2-2----4-4-4----2-2-2-2-2-2-2-2-2-2-2-2-2-2-2---------------------------|
E-----------2-2-2----0-0-0-0-0-0-0-0-0-0-0-0-0-0-0---------------------------|


Bridge  0:57 - 1:06

E----------------------------------------------------------------------------|
B----------------------------------------------------------------------------|
G-6------6------4------4------6-------6-------4------4-----------------------|
D---0------0------0------0------0-------0-------0------0---------------------|
A----------------------------------------------------------------------------|
E----------------------------------------------------------------------------|

E----------------------------------------------------------------------------|
B----------------------------------------------------------------------------|
G----------------------------------------------------------------------------|
D------11------11-----9-------9------11-----11-----9-----9-------------------|
A---------0-------0------0-------0------0-------0-----0-----0----------------|
E----------------------------------------------------------------------------|


Verso 1:07 - 1:35
E-----------------------------------------------------------------------------|
B-2-2-2-2----0-0-0-0----------------------------------------------------------|
G-2-2-2-2----2-2-2-2----2-2-2-2-----1-1-1-1-----------------------------------|
D-0-0-0-0----2-2-2-2----0-0-0-0-----2-2-2-2----4-4-4-4-4-4-4-4-----------11---|
A-0-0-0-0----0-0-0-0----0-0-0-0-----2-2-2-2----4-4-4-4-4-4-4-4-------12-------|
E-----------------------2-2-2-2-----0-0-0-0----2-2-2-2-2-2-2-2----0-----------|


E----------------------------------------------------------------------|
B----------------------------------------------------------------------|
G-2-2-2-2-2-2-2-2----1-1-1-1-1-1-1-1-----------------------------------|
D-2-2-2-2-2-2-2-2----2-2-2-2-2-2-2-2----4-4-4-4------------------------|
A-0-0-0-0-0-0-0-0----2-2-2-2-2-2-2-2----4-4-4-4------------------------|
E--------------------0-0-0-0-0-0-0-0----2-2-2-2------------------------|

E------------------------------------------------------------------|
B------------------------------------------------------------------|
G-------------------------------2-2-2-2----------------------------|
D----------11------9---7--------2-2-2-2----------------------------|
A-------12----11-----9---9------0-0-0-0----------------------------|
E----0-------------------------------------------------------------|


E----------------------------------------------------------------------------|
B----------------------------------------------------------------------------|
G-1-1-1-1-1-1-1-1------------------------------------------------------------|
D-2-2-2-2-2-2-2-2------------------------------------------------------------|
A-2-2-2-2-2-2-2-2------------------------------------------------------------|
E-0-0-0-0-0-0-0-0------------------------------------------------------------|



Coro 1:38 - 1:55
X2
E----------------------------------------------------------------------------|
B---------------------3-3-3-3-3-3-3-3----2-2-2-2-2-2-2-2---0-0-0-0-0-0-0-0-0-|
G---------------------2-2-2-2-2-2-2-2----2-2-2-2-2-2-2-2---------------------|
D--4-4-4-4-4-4-4-4----0-0-0-0-0-0-0-0----2-2-2-2-2-2-2-2---2-2-2-2-2-2-2-2-2-|
A--4-4-4-4-4-4-4-4----0-0-0-0-0-0-0-0----0-0-0-0-0-0-0-0---------------------|
E--2-2-2-2-2-2-2-2-----------------------------------------4-4-4-4-4-4-4-4-4-|

1:56 - 2:14
X2
E----------------------------------------------------------------------------|
B----------------------------------------------------------------------------|
G--4-4-4---------------------------------------------------------------------|
D--2-2-2----4-4-4----2-2-2-2-2-2-2-2-2-2-2-2-2-2-2---------------------------|
A--2-2-2----4-4-4----2-2-2-2-2-2-2-2-2-2-2-2-2-2-2---------------------------|
E-----------2-2-2----0-0-0-0-0-0-0-0-0-0-0-0-0-0-0---------------------------|



Cambio 2:15 - 2:33
X2
E-----------------------------------------------------------------------------|
B-----------------------------------------------------------------------------|
G-6-6-6-6-6-6-6-6----4-4-4-4-4-4-4-4-----------------------1-1-1-1-1-1-1-1----|
D-4-4-4-4-4-4-4-4----2-2-2-2-2-2-2-2----4-4-4-4-4-4-4-4----2-2-2-2-2-2-2-2----|
A-4-4-4-4-4-4-4-4----2-2-2-2-2-2-2-2----4-4-4-4-4-4-4-4----2-2-2-2-2-2-2-2----|
E---------------------------------------2-2-2-2-2-2-2-2----0-0-0-0-0-0-0-0----|

X2 2:34 - 2:52
E-9----9---9-----9------12-----12-----12-----12-----14-----14-----14----14----|
B--10---10--10----10------10----10-----10-----10-----10-----10-----10----10---|
G-----------------------------------------------------------------------------|
D-----------------------------------------------------------------------------|
A-----------------------------------------------------------------------------|
E-----------------------------------------------------------------------------|

E-9-----9------9-----9----------------|
B---10----10----10----10--------------|
G-------------------------------------|
D-------------------------------------|
A-------------------------------------|
E-------------------------------------|


Coro Final 2:44 - 3:36
X4
E--------------------------------------------------------------------------|
B---------------------3-3-3-3-3-3-3-3----2-2-2-2-2-2-2-2--0-0-0-0-0-0-0----|
G---------------------2-2-2-2-2-2-2-2----2-2-2-2-2-2-2-2-------------------|
D--4-4-4-4-4-4-4-4----0-0-0-0-0-0-0-0----2-2-2-2-2-2-2-2--2-2-2-2-2-2-2----|
A--4-4-4-4-4-4-4-4----0-0-0-0-0-0-0-0----0-0-0-0-0-0-0-0-------------------|
E--2-2-2-2-2-2-2-2----------------------------------------4-4-4-4-4-4-4----|



-----------------------------------บบบบบบ------------------------------------

Guitar 2 Jose Luis Ramirez

INTRO
X2
E-9--9---9---9----7---7---7---7----7---7----7---7-----7----7----7----7---|
B-10-10--10--10---10--10--10--10---10--10--10---10----10---10---10--10---|
G-7--7---7---7----9---9---9---9----7---7----7---7-----9----9----9----9---|
D-7--7---7---7----7---7---7---7----7---7----7---7-----7----7----7----7---|
A------------------------------------------------------------------------|
E------------------------------------------------------------------------|


E--9-----7------7----7----------------|
B--10---10------10---10---------------|
G--7----9-------7----9----------------|
D--7----7-------7----7----------------|
A-------------------------------------|
E-------------------------------------|

X2
E-9--9---9---9----7---7---7---7----7---7----7---7-----7----7----7----7---|
B-10-10--10--10---10--10--10--10---10--10--10---10----10---10---10--10---|
G-7--7---7---7----9---9---9---9----7---7----7---7-----9----9----9----9---|
D-7--7---7---7----7---7---7---7----7---7----7---7-----7----7----7----7---|
A------------------------------------------------------------------------|
E------------------------------------------------------------------------|

CORO
X2
E---9-----10----9-----7-------------------------------------------------------|
B--10----10----10---10--------------------------------------------------------|
G--11----11----9-----9--------------------------------------------------------|
D-----------------------------------------------------------------------------|
A-----------------------------------------------------------------------------|
E-----------------------------------------------------------------------------|

E----------------------------------------------------------------------------|
B----------------------------------------------------------------------------|
G--14--11--11---9---11--11---9--9--9--9---14--14--14--14---13--13--13--13----|
D----------------------------------------------------------------------------|
A--12---9----9---7----9--9---7--7--7--7---12--12--12--12---11--11--11--11----|
E----------------------------------------------------------------------------|


VERSO
E--9---9---9---9------7----7----7----7-----7---7----7----7-------4--4--4--4---|
B--10--10--10--10-----10---10---10---10----10--10---10--10-------5--5--5--5---|
G--7---7---7---7------9-----9---9----9-----7---7----7----7-------4--4--4--4---|
D--7---7---7---7------7-----7---7----7-----7---7----7----7--------------------|
A-----------------------------------------------------------------------------|
E-----------------------------------------------------------------------------|



CORO
X2
E--------------------------------------------------------------------------------------------------|
B--------------------------------------------------------------------------------------------------|
G--6--6--6--6--6--6--6--6--7--7--7--7--7--7--7--7--9--9--9--9--9--9--9--9--4--4--4--4--4--4--4--4--|
D--------------------------------------------------------------------------------------------------|
A--4--4--4--4--4--4--4--4--5--5--5--5--5--5--5--5--7--7--7--7--7--7--7--7--2--2--2--2--2--2--2--2--|
E--------------------------------------------------------------------------------------------------|

X2
E--------------------------------------------------------------------------------------------|
B--------------------------------------------------------------------------------------------|
G--14--11--11---9---11--11---9--9--9--9---14--14--14--14---16--16--16--16--16--16--16--16----|
D--------------------------------------------------------------------------------------------|
A--12---9---9---7----9----9----7--7--7--7---12--12--12--12---14--14--14--14--14--14--14--14--|
E--------------------------------------------------------------------------------------------|


CAMBIO
X2
E--------------------------------------------------------------------------------------------------|
B--------------------------------------------------------------------------------------------------|
G6--6--6--6--6--6--6--6----4--4--4--4--4--4--4--4--------------------------------------------------|
D---------------------------------------------------4--4--4--4--4--4--4--4---4--4--4--4--4--4--4--4|
A4--4--4--4--4--4--4--4----2--2--2--2--2--2--2--2---4--4--4--4--4--4--4--4---4--4--4--4--4--4--4--4|
E---------------------------------------------------2--2--2--2--2--2--2--2---0--0--0--0--0--0--0--0|






E----------------------------------------------------------------------------|
B----------------------------------------------------------------------------|
G--18--18--18--18--18--18--18--18--18--18--18--18---13-----------------------|
D----------------------------------------------------------------------------|
A--16--16--16--16--16--16--16--16--16--16--16--16---11-----------------------|
E----------------------------------------------------------------------------|


E------------------------------------------------------------------------|
B------------------------------------------------------------------------|
G------------------------------------------------------------------------|
D-----------------11------7----------------11----7--7--7--7--7--7--7--7--|
A-----------------12------7----------------12----7--7--7--7--7--7--7--7--|
E---2------0------10------5-----2-----0----10----5--5--5--5--5--5--5--5--|


CORO

E--------------------------------------------------------------------------------------------------|
B--------------------------------------------------------------------------------------------------|
G--6--6--6--6--6--6--6--6--7--7--7--7--7--7--7--7--9--9--9--9--9--9--9--9--4--4--4--4--4--4--4--4--|
D--------------------------------------------------------------------------------------------------|
A--4--4--4--4--4--4--4--4--5--5--5--5--5--5--5--5--7--7--7--7--7--7--7--7--2--2--2--2--2--2--2--2--|
E--------------------------------------------------------------------------------------------------|


E----------------------------------------------------------------------------------|
B----------------------------------------------------------------------------------|
G-6-6-6-6-6-6-6-6--7-7-7-7-7-7-7-7--9-9-9-9-9-9-9-9--14-14-14-14--13-13-13-13------|
D----------------------------------------------------------------------------------|
A-4-4-4-4-4-4-4-4--5-5-5-5-5-5-5-5--7-7-7-7-7-7-7-7--12-12-12-12--11-11-11-11------|
E----------------------------------------------------------------------------------|

X2
E-----------------------------------------------------------------------------|
B-----------------------------------------------------------------------------|
G-14-14-14-14-14-14-14-14-14-14-14-14-14-14-14-14-14-14-14-14-14-14-14-14-----|
D-----------------------------------------------------------------------------|
A-12-12-12-12-12-12-12-12-12-12-12-12-12-12-12-12-12-12-12-12-12-12-12-12-----|
E-----------------------------------------------------------------------------|

E-----------------------------------------------|
B-----------------------------------------------|
G-16-16-16-16-16-16-16--------------------------|
D-----------------------------------------------|
A-14-14-14-14-14-14-14--------------------------|
E-----------------------------------------------|




E---------------------------------------------|
B---------------------------------------------|
G--14-14-14-----------------------------------|
D---------------------------------------------|
A--12-12-12-----------------------------------|
E---------------------------------------------|




any doubt:
silver_plain@hotmail.com

Follow the band on Twitter
@TheAsbestos
Tap to rate this tab
 
# A B C D E F G H I J K L M N O P Q R S T U V W X Y Z