Song name
# A B C D E F G H I J K L M N O P Q R S T U V W X Y Z

The Avett Brothers - At The Beach tab

This is the second solo in the song. It comes at about 2:11.

e|-10-7---------7-10-7-------------------------8-7---------7--------10-7----7-|
B|------10-8-10--------10--10-8---8-10-8---8-------10-8-10---10-8--------10---|
G|------------------------------9--------9---9--------------------9-----------|
D|----------------------------------------------------------------------------|
A|----------------------------------------------------------------------------|
E|----------------------------------------------------------------------------|

e|-----------10---7-------------15-15-15-15-15-15-15--14--12-10----10---------|
B|10-8---8----------10-8-10-8-----------------------------------12----12------|
G|-----9---7------------------9-----------------------------------------------|
D|----------------------------------------------------------------------------|
A|----------------------------------------------------------------------------|
E|----------------------------------------------------------------------------|

e|15-15-15-15-15-15-15--14--12-10----10---------------------------------------|
B|--------------------------------12----12--12-10-12-10----------10-----------|
G|------------------------------------------------------12--9-12-----12-------|
D|----------------------------------------------------------------------------|
A|----------------------------------------------------------------------------|
E|----------------------------------------------------------------------------|

e|-------------------------------------------------------------10--12-14--12--|
B|---------------------------10--12-13--12--10--12--13--12-10-----------------|
G|12--9-----9----9-------0----------------------------------------------------|
D|------12----12---7-9-7------------------------------------------------------|
A|----------------------------------------------------------------------------|
E|----------------------------------------------------------------------------|

e|10--12--10-----10--5-----5-------------------------------------------------|
G|------------12-----5-----5-------------------------------------------------|
D|---------------------------------------------------------------------------|
A|---------------------------------------------------------------------------|
E|---------------------------------------------------------------------------|

Tap to rate this tab
# A B C D E F G H I J K L M N O P Q R S T U V W X Y Z