Song name
# A B C D E F G H I J K L M N O P Q R S T U V W X Y Z

The Avett Brothers - Offering chords

Highlighted       Show chord diagrams
-------------------------------------------------------------------------------
                             OFFERING - The Avett Brothers
-------------------------------------------------------------------------------

Tabbed by: Macheeoo
Email: macheeoo@yahoo.com

Tuning: Standard

Riff throughout song-
   G      C  D  G   G  G/F#  Em     D    G
e|--3-----0--2--3---3--3-----0------2---3-----------------------------------|
B|--3-----1--3--3---3--3-----0------3---3-----------------------------------|
G|--0-----0--2--0---0--0-----0------2---0-----------------------------------|
D|--0-----2--0--0---0--0-----2------0---0-----------------------------------|
A|--2--2--3--X--2---2--X-----2--2-3-X---2-----------------------------------|
E|--3-----X--X--3---3--2-----0------X---3-----------------------------------|


G        C
Babe I'm lost
                   D       G
Cause I don't know what to say
G  G/F# Em     D
Hmmm I love you
                         G
Want to make you my wife someday

G           C
Donít wanna steal you
           D       G
Of a young womanís light
G   G/F#   Em     D
To me it's perfect
                 G
Just wanna do you right

G              C
And I've known others
          D           G
And I've loved others too
                       G    G/F#  Em             D
But I loved them cause they were stepping stones
                  G
On a staircase to you

G              C
Sometimes I act foolish
             D       G
I don't know what to do
             G  G/F#   Em        D
Please babe try not to judge me
                   G
For my offering is true

G              C
And I dream of children
      D        G
We can call our own
          G    G/F#        Em          D
Watch 'em run around in the front yard
                           G
From the front porch of our home
Tap to rate this tab
# A B C D E F G H I J K L M N O P Q R S T U V W X Y Z