Song name
# A B C D E F G H I J K L M N O P Q R S T U V W X Y Z

The B52s - Planet Claire tab

"Planet Claire" – The B-52's
Tabbed by: Egoblind
E-mail: jerome_ke@yahoo.fr
Tuning: standard

Thanks to Privettricker for the strings trick
Classic song, but in its entirety, since there is not much to find on this song in tabs.
Not much to add !
enjoy.


e|----------------------|--------------------|-------------------------------|
B|----------------------|--------------------|-------------------------------|
G|----------------------|--------------------|-------------------------------|
D|----------------------|--------------------|-------------------------------|
A|----------------------|--------------------|-------------------------------|
E|--0-0-2-3-0-5-3-------|--0-0-2-3-0-5-3-----|----0-0-2-3-0-5-3--------------|



Keyboard arranged for Gtr:play twice

e|--12----11-10---9-8---|--9-10---11-12------|-------------------------------|
B|----------------------|--------------------|--12--11--10--12--11--10--11---|
G|----------------------|--------------------|-------------------------------|
D|----------------------|--------------------|-------------------------------|
A|----------------------|--------------------|-------------------------------|
E|----------------------|--------------------|-------------------------------|

e|-11-12---11-12-12----|-11-12--11-12-12-12--|-11-12----11-12-12-12-12-------|
B|---------------------|---------------------|-------------------------------|
G|---------------------|---------------------|-------------------------------|
D|---------------------|---------------------|-------------------------------|
A|---------------------|---------------------|-------------------------------|
E|---------------------|---------------------|-------------------------------|

e|-11-12---11-12-12-12-12-12-|------------------|----------------------------|
B|---------------------------|------------------|----------------------------|
G|---------------------------|------------------|----------------------------|
D|---------------------------|------------------|----------------------------|
A|---------------------------|------------------|----------------------------|
E|---------------------------|------------------|----------------------------|
     

e|----------------------|--------------------|-------------------------------|
B|----------------------|--------------------|-------------------------------|
G|----------------------|--------------------|-------------------------------|
D|----------------------|--------------------|-------------------------------|
A|----------------------|--------------------|-------------------------------|
E|--0-0-2-3-0-5-3-------|--0-0-2-3-0-5-3-----|----0-0-2-3-0-5-3--------------|

e|-----------------------------------|---------------------------------------|
B|-----------------------------------|---------------------------------------|
G|-----------------------------------|---------------------------------------|
D|--------------------------3--2-----|------------------------5---3-2--------|
A|--0-0-2-3-0-5-3--0-0-2-3-----------|--0-0-2-3-0-5-3---0-0-2----------------|
E|-----------------------------------|---------------------------------------|

e|-----------------------------------|---------------------------------------|
B|-----------------------------------|---------------------------------------|
G|-----------------------------------|------------------------------1--------|
D|--------------------------3--2-----|---------------------------0--2--------|
A|--0-0-2-3-0-5-3--0-0-2-3-----------|--0-0-2-3-0-5-3---0-0-2-3--0--2--------|
E|-----------------------------------|---------------------------------------|


e|------------------------------------|--------------------------------------|
B|------------------------------------|--------------------------------------|
G|------------------------------------|----------------------------1---------|
D|-------------------------0-------3--|-------------------------0--2---------|
A|---------------------------0--2--2--|-------------------------0--2---------|
E|--0-0-2-3-0-5-3--0-0-2--------------|--0-0-2-3-0-5-3--0-0-2-3--------------|


e|------------------------------------|--------------------------------------|
B|------------------------------------|--------------------------------------|
G|----------------------------1-------|--------------------------------------|
D|-------------------------0--2-------|------------------------0-------3-----|
A|-------------------------0--2-------|--------------------------0--2--2-----|
E|--0-0-2-3-0-5-3--0-0-2-3------------|--0-0-2-3-0-5-3--0-0-2----------------|


e|------------------------------------|--------------------------------------|
B|------------------------------------|--------------------------------------|
G|----------------------------1-------|------------------------------1-------|
D|-------------------------0--2-------|--------------------------0---2-------|
A|-------------------------0--2-------|--------------------------0---2-------|
E|--0-0-2-3-0-5-3--0-0-2-3------------|--0-0-2-3-0-5-3--0-0-2-3--------------|



Back to ...

e|----------------------|--------------------|-------------------------------|
B|----------------------|--------------------|-------------------------------|
G|----------------------|--------------------|-------------------------------|
D|----------------------|--------------------|-------------------------------|
A|----------------------|--------------------|-------------------------------|
E|--0-0-2-3-0-5-3-------|--0-0-2-3-0-5-3-----|----0-0-2-3-0-5-3--------------|


Keyboard arranged for Gtr: play twice

e|--12----11-10-14-14----|--9-8---12-11-------|-------------------------------|
B|-----------------------|--------------------|-------------------------------|
G|-----------------------|--------------------|-------------------------------|
D|-----------------------|--------------------|-------------------------------|
A|-----------------------|--------------------|-------------------------------|
E|-----------------------|--------------------|-------------------------------|


and then

e|-----------------------------------|---------------------------------------|
B|-----------------------------------|---------------------------------------|
G|-----------------------------------|---------------------------------------|
D|--------------------------3--2-----|------------------------5---3-2--------|
A|--0-0-2-3-0-5-3--0-0-2-3-----------|--0-0-2-3-0-5-3---0-0-2----------------|
E|-----------------------------------|---------------------------------------|


e|-----------------------------------|---------------------------------------|
B|-----------------------------------|---------------------------------------|
G|-----------------------------------|------------------------------1--------|
D|--------------------------3--2-----|---------------------------0--2--------|
A|--0-0-2-3-0-5-3--0-0-2-3-----------|--0-0-2-3-0-5-3---0-0-2-3--0--2--------|
E|-----------------------------------|---------------------------------------|

e|------------------------------------|--------------------------------------|
B|------------------------------------|--------------------------------------|
G|------------------------------------|----------------------------1---------|
D|-------------------------0-------3--|-------------------------0--2---------|
A|---------------------------0--2--2--|-------------------------0--2---------|
E|--0-0-2-3-0-5-3--0-0-2--------------|--0-0-2-3-0-5-3--0-0-2-3--------------|

e|------------------------------------|--------------------------------------|
B|------------------------------------|--------------------------------------|
G|----------------------------1-------|------------------------------1-------|
D|-------------------------0--2-------|--------------------------0---2-------|
A|-------------------------0--2-------|--------------------------0---2-------|
E|--0-0-2-3-0-5-3--0-0-2-3------------|--0-0-2-3-0-5-3--0-0-2-3--------------|

e|------------------------------------|--------------------------------------|
B|------------------------------------|--------------------------------------|
G|------------------------------------|----------------------------1---------|
D|-------------------------0-------3--|-------------------------0--2---------|
A|---------------------------0--2--2--|-------------------------0--2---------|
E|--0-0-2-3-0-5-3--0-0-2--------------|--0-0-2-3-0-5-3--0-0-2-3--------------|

e|------------------------------------|--------------------------|
B|------------------------------------|--------------------------|
G|------------------------------------|--------------------------|
D|-------------------------0-------3--|--------------------------|
A|---------------------------0--2--2--|--------------------------|
E|--0-0-2-3-0-5-3--0-0-2--------------|--0-0-2-3-0-5-3-----------|


ending on 

e|----------------------|--------------------|-------------------------------|
B|----------------------|--------------------|-------------------------------|
G|----------------------|--------------------|-------------------------------|
D|----------------------|--------------------|-------------------------------|
A|----------------------|--------------------|-------------------------------|
E|--0-0-2-3-0-5-3-------|--0-0-2-3-0-5-3-----|----0-0-2-3-0-5-3--------------|

with the keyboard riff

e|--12----11-10---9-8---|--9-10---11-12------|-------------------------------|
B|----------------------|--------------------|--12--11--10--12--11--10--11---|
G|----------------------|--------------------|-------------------------------|
D|----------------------|--------------------|-------------------------------|
A|----------------------|--------------------|-------------------------------|
E|----------------------|--------------------|-------------------------------|

e|-11-12---------------|
B|---------------------|
G|---------------------|
D|---------------------|
A|---------------------|
E|---------------------|

Tap to rate this tab
# A B C D E F G H I J K L M N O P Q R S T U V W X Y Z